ISO-10303-21;
HEADER;
FILE_DESCRIPTION (( 'STEP AP214' ),
    '1' );
FILE_NAME ('BP1ISOK63.STEP',
    '2024-05-27T13:06:32',
    ( '' ),
    ( '' ),
    'SwSTEP 2.0',
    'SolidWorks 2017',
    '' );
FILE_SCHEMA (( 'AUTOMOTIVE_DESIGN' ));
ENDSEC;

DATA;
#1 = ADVANCED_FACE ( 'NONE', ( #205, #248 ), #334, .F. ) ;
#2 = CIRCLE ( 'NONE', #56, 47.31481481481482400 ) ;
#3 = AXIS2_PLACEMENT_3D ( 'NONE', #195, #51, #231 ) ;
#4 = CARTESIAN_POINT ( 'NONE',  ( 0.0000000000000000000, 0.0000000000000000000, 11.99999999999999800 ) ) ;
#5 = DIRECTION ( 'NONE',  ( 0.0000000000000000000, 0.0000000000000000000, 1.000000000000000000 ) ) ;
#6 = PRESENTATION_STYLE_ASSIGNMENT (( #90 ) ) ;
#7 = ORIENTED_EDGE ( 'NONE', *, *, #259, .T. ) ;
#8 = EDGE_LOOP ( 'NONE', ( #376 ) ) ;
#9 = CARTESIAN_POINT ( 'NONE',  ( 0.0000000000000000000, 0.0000000000000000000, 11.99999999999999600 ) ) ;
#10 = AXIS2_PLACEMENT_3D ( 'NONE', #243, #63, #272 ) ;
#11 = FACE_OUTER_BOUND ( 'NONE', #65, .T. ) ;
#12 = ORIENTED_EDGE ( 'NONE', *, *, #159, .T. ) ;
#13 = EDGE_LOOP ( 'NONE', ( #186 ) ) ;
#14 = AXIS2_PLACEMENT_3D ( 'NONE', #373, #320, #57 ) ;
#15 =( GEOMETRIC_REPRESENTATION_CONTEXT ( 3 ) GLOBAL_UNCERTAINTY_ASSIGNED_CONTEXT ( ( #154 ) ) GLOBAL_UNIT_ASSIGNED_CONTEXT ( ( #18, #238, #228 ) ) REPRESENTATION_CONTEXT ( 'NONE', 'WORKASPACE' ) );
#16 = DIRECTION ( 'NONE',  ( 0.0000000000000000000, 0.0000000000000000000, 1.000000000000000000 ) ) ;
#17 = CARTESIAN_POINT ( 'NONE',  ( 46.75000000000000000, 0.0000000000000000000, 1.066973523757131400E-014 ) ) ;
#18 =( LENGTH_UNIT ( ) NAMED_UNIT ( * ) SI_UNIT ( .MILLI., .METRE. ) );
#19 = DIRECTION ( 'NONE',  ( 1.000000000000000000, 0.0000000000000000000, -0.0000000000000000000 ) ) ;
#20 = VERTEX_POINT ( 'NONE', #167 ) ;
#21 = FACE_OUTER_BOUND ( 'NONE', #352, .T. ) ;
#22 = DIRECTION ( 'NONE',  ( 0.0000000000000000000, 0.0000000000000000000, 1.000000000000000000 ) ) ;
#23 = EDGE_LOOP ( 'NONE', ( #142 ) ) ;
#24 = DIRECTION ( 'NONE',  ( 0.0000000000000000000, 0.0000000000000000000, 1.000000000000000000 ) ) ;
#25 = DIRECTION ( 'NONE',  ( 1.000000000000000000, 0.0000000000000000000, 0.0000000000000000000 ) ) ;
#26 = CYLINDRICAL_SURFACE ( 'NONE', #183, 32.50000000000000000 ) ;
#27 = CIRCLE ( 'NONE', #78, 35.00000000000000000 ) ;
#28 = DIRECTION ( 'NONE',  ( 1.000000000000000000, 0.0000000000000000000, 0.0000000000000000000 ) ) ;
#29 = CARTESIAN_POINT ( 'NONE',  ( 0.0000000000000000000, 0.0000000000000000000, 0.0000000000000000000 ) ) ;
#30 = FACE_OUTER_BOUND ( 'NONE', #274, .T. ) ;
#31 = ORIENTED_EDGE ( 'NONE', *, *, #244, .T. ) ;
#32 = DIRECTION ( 'NONE',  ( 1.000000000000000000, 0.0000000000000000000, 0.0000000000000000000 ) ) ;
#33 = AXIS2_PLACEMENT_3D ( 'NONE', #305, #365, #123 ) ;
#34 = CYLINDRICAL_SURFACE ( 'NONE', #38, 45.00000000000000000 ) ;
#35 = EDGE_CURVE ( 'NONE', #374, #374, #48, .T. ) ;
#36 = FACE_OUTER_BOUND ( 'NONE', #265, .T. ) ;
#37 = ADVANCED_FACE ( 'NONE', ( #262, #178 ), #102, .T. ) ;
#38 = AXIS2_PLACEMENT_3D ( 'NONE', #104, #234, #200 ) ;
#39 =( LENGTH_UNIT ( ) NAMED_UNIT ( * ) SI_UNIT ( .MILLI., .METRE. ) );
#40 = EDGE_LOOP ( 'NONE', ( #89 ) ) ;
#41 = EDGE_LOOP ( 'NONE', ( #157 ) ) ;
#42 = DIRECTION ( 'NONE',  ( 0.0000000000000000000, 0.0000000000000000000, 1.000000000000000000 ) ) ;
#43 = CIRCLE ( 'NONE', #333, 45.00000000000000000 ) ;
#44 = FACE_BOUND ( 'NONE', #132, .T. ) ;
#45 =( GEOMETRIC_REPRESENTATION_CONTEXT ( 3 ) GLOBAL_UNCERTAINTY_ASSIGNED_CONTEXT ( ( #273 ) ) GLOBAL_UNIT_ASSIGNED_CONTEXT ( ( #83, #289, #108 ) ) REPRESENTATION_CONTEXT ( 'NONE', 'WORKASPACE' ) );
#46 = DIRECTION ( 'NONE',  ( 1.000000000000000000, 0.0000000000000000000, 0.0000000000000000000 ) ) ;
#47 = DIRECTION ( 'NONE',  ( -1.000000000000000000, 0.0000000000000000000, 0.0000000000000000000 ) ) ;
#48 = CIRCLE ( 'NONE', #344, 47.50000000000000000 ) ;
#49 = FILL_AREA_STYLE ('',( #371 ) ) ;
#50 = DIRECTION ( 'NONE',  ( 0.0000000000000000000, 0.0000000000000000000, 1.000000000000000000 ) ) ;
#51 = DIRECTION ( 'NONE',  ( 0.0000000000000000000, 0.0000000000000000000, 1.000000000000000000 ) ) ;
#52 = DIRECTION ( 'NONE',  ( 1.000000000000000000, 0.0000000000000000000, 0.0000000000000000000 ) ) ;
#53 = VERTEX_POINT ( 'NONE', #324 ) ;
#54 = FACE_OUTER_BOUND ( 'NONE', #339, .T. ) ;
#55 = ORIENTED_EDGE ( 'NONE', *, *, #221, .F. ) ;
#56 = AXIS2_PLACEMENT_3D ( 'NONE', #73, #323, #284 ) ;
#57 = DIRECTION ( 'NONE',  ( -1.000000000000000000, 0.0000000000000000000, 0.0000000000000000000 ) ) ;
#58 = APPLICATION_CONTEXT ( 'automotive_design' ) ;
#59 = EDGE_LOOP ( 'NONE', ( #375 ) ) ;
#60 = CARTESIAN_POINT ( 'NONE',  ( 0.0000000000000000000, 0.0000000000000000000, 7.692582403567263000 ) ) ;
#61 = CARTESIAN_POINT ( 'NONE',  ( 0.0000000000000000000, 0.0000000000000000000, 9.999999999999994700 ) ) ;
#62 = SURFACE_STYLE_FILL_AREA ( #185 ) ;
#63 = DIRECTION ( 'NONE',  ( 0.0000000000000000000, 0.0000000000000000000, 1.000000000000000000 ) ) ;
#64 = VERTEX_POINT ( 'NONE', #74 ) ;
#65 = EDGE_LOOP ( 'NONE', ( #214 ) ) ;
#66 = VERTEX_POINT ( 'NONE', #378 ) ;
#67 = EDGE_LOOP ( 'NONE', ( #31 ) ) ;
#68 = DIRECTION ( 'NONE',  ( 0.0000000000000000000, 0.0000000000000000000, 1.000000000000000000 ) ) ;
#69 = EDGE_CURVE ( 'NONE', #66, #66, #93, .T. ) ;
#70 = TOROIDAL_SURFACE ( 'NONE', #119, 47.30000000000001100, 0.1999999999999957600 ) ;
#71 = ORIENTED_EDGE ( 'NONE', *, *, #328, .T. ) ;
#72 = EDGE_LOOP ( 'NONE', ( #237 ) ) ;
#73 = CARTESIAN_POINT ( 'NONE',  ( 0.0000000000000000000, 0.0000000000000000000, 2.506868144845146900 ) ) ;
#74 = CARTESIAN_POINT ( 'NONE',  ( 45.00000000000000000, 0.0000000000000000000, 11.99999999999999800 ) ) ;
#75 = COLOUR_RGB ( '',0.6470588235294118000, 0.6196078431372549200, 0.5882352941176470800 ) ;
#76 = FACE_OUTER_BOUND ( 'NONE', #168, .T. ) ;
#77 = CARTESIAN_POINT ( 'NONE',  ( 0.0000000000000000000, 0.0000000000000000000, 0.7500000000000098800 ) ) ;
#78 = AXIS2_PLACEMENT_3D ( 'NONE', #239, #24, #25 ) ;
#79 = CIRCLE ( 'NONE', #118, 47.50000000000000000 ) ;
#80 = ADVANCED_FACE ( 'NONE', ( #250, #121 ), #247, .T. ) ;
#81 = EDGE_LOOP ( 'NONE', ( #7 ) ) ;
#82 = EDGE_LOOP ( 'NONE', ( #362 ) ) ;
#83 =( LENGTH_UNIT ( ) NAMED_UNIT ( * ) SI_UNIT ( .MILLI., .METRE. ) );
#84 = CARTESIAN_POINT ( 'NONE',  ( 47.50000000000000000, 0.0000000000000000000, 0.7500000000000098800 ) ) ;
#85 = ADVANCED_FACE ( 'NONE', ( #278, #21 ), #95, .T. ) ;
#86 = ADVANCED_FACE ( 'NONE', ( #30 ), #279, .T. ) ;
#87 = AXIS2_PLACEMENT_3D ( 'NONE', #354, #380, #32 ) ;
#88 = VERTEX_POINT ( 'NONE', #343 ) ;
#89 = ORIENTED_EDGE ( 'NONE', *, *, #192, .T. ) ;
#90 = SURFACE_STYLE_USAGE ( .BOTH. , #215 ) ;
#91 =( NAMED_UNIT ( * ) SI_UNIT ( $, .STERADIAN. ) SOLID_ANGLE_UNIT ( ) );
#92 = CARTESIAN_POINT ( 'NONE',  ( 0.0000000000000000000, 0.0000000000000000000, 0.7500000000000098800 ) ) ;
#93 = CIRCLE ( 'NONE', #3, 46.75000000000000000 ) ;
#94 = APPLICATION_PROTOCOL_DEFINITION ( 'draft international standard', 'automotive_design', 1998, #114 ) ;
#95 = CYLINDRICAL_SURFACE ( 'NONE', #310, 40.00000000000000700 ) ;
#96 = CARTESIAN_POINT ( 'NONE',  ( 0.0000000000000000000, 0.0000000000000000000, 11.24999999999999800 ) ) ;
#97 = AXIS2_PLACEMENT_3D ( 'NONE', #180, #208, #245 ) ;
#98 = DIRECTION ( 'NONE',  ( 0.0000000000000000000, 0.0000000000000000000, 1.000000000000000000 ) ) ;
#99 = DIRECTION ( 'NONE',  ( 1.000000000000000000, 0.0000000000000000000, 0.0000000000000000000 ) ) ;
#100 = AXIS2_PLACEMENT_3D ( 'NONE', #370, #22, #19 ) ;
#101 = EDGE_LOOP ( 'NONE', ( #311 ) ) ;
#102 = PLANE ( 'NONE',  #213 ) ;
#103 = PRESENTATION_LAYER_ASSIGNMENT (  '', '', ( #346 ) ) ;
#104 = CARTESIAN_POINT ( 'NONE',  ( 0.0000000000000000000, 0.0000000000000000000, 0.0000000000000000000 ) ) ;
#105 = DIRECTION ( 'NONE',  ( 0.0000000000000000000, 0.0000000000000000000, 1.000000000000000000 ) ) ;
#106 = EDGE_LOOP ( 'NONE', ( #12 ) ) ;
#107 = AXIS2_PLACEMENT_3D ( 'NONE', #235, #140, #201 ) ;
#108 =( NAMED_UNIT ( * ) SI_UNIT ( $, .STERADIAN. ) SOLID_ANGLE_UNIT ( ) );
#109 = DIRECTION ( 'NONE',  ( 1.000000000000000000, 0.0000000000000000000, 0.0000000000000000000 ) ) ;
#110 = EDGE_LOOP ( 'NONE', ( #368 ) ) ;
#111 = EDGE_LOOP ( 'NONE', ( #55 ) ) ;
#112 = ADVANCED_FACE ( 'NONE', ( #357, #117 ), #133, .T. ) ;
#113 = AXIS2_PLACEMENT_3D ( 'NONE', #60, #269, #207 ) ;
#114 = APPLICATION_CONTEXT ( 'automotive_design' ) ;
#115 = EDGE_CURVE ( 'NONE', #233, #233, #271, .T. ) ;
#116 = FACE_OUTER_BOUND ( 'NONE', #41, .T. ) ;
#117 = FACE_BOUND ( 'NONE', #351, .T. ) ;
#118 = AXIS2_PLACEMENT_3D ( 'NONE', #77, #105, #318 ) ;
#119 = AXIS2_PLACEMENT_3D ( 'NONE', #340, #369, #193 ) ;
#120 = ADVANCED_BREP_SHAPE_REPRESENTATION ( 'BP1ISOK63', ( #288, #134 ), #15 ) ;
#121 = FACE_OUTER_BOUND ( 'NONE', #111, .T. ) ;
#122 = DIRECTION ( 'NONE',  ( 0.0000000000000000000, 0.0000000000000000000, 1.000000000000000000 ) ) ;
#123 = DIRECTION ( 'NONE',  ( 1.000000000000000000, 0.0000000000000000000, 0.0000000000000000000 ) ) ;
#124 = AXIS2_PLACEMENT_3D ( 'NONE', #241, #16, #263 ) ;
#125 = DIRECTION ( 'NONE',  ( 1.000000000000000000, 0.0000000000000000000, -0.0000000000000000000 ) ) ;
#126 = FACE_BOUND ( 'NONE', #82, .T. ) ;
#127 = EDGE_LOOP ( 'NONE', ( #211 ) ) ;
#128 = PRODUCT ( 'BP1ISOK63', 'BP1ISOK63', '', ( #338 ) ) ;
#129 = DIRECTION ( 'NONE',  ( 1.000000000000000000, 0.0000000000000000000, 0.0000000000000000000 ) ) ;
#130 = VERTEX_POINT ( 'NONE', #292 ) ;
#131 = EDGE_CURVE ( 'NONE', #321, #321, #189, .T. ) ;
#132 = EDGE_LOOP ( 'NONE', ( #327 ) ) ;
#133 = PLANE ( 'NONE',  #100 ) ;
#134 = AXIS2_PLACEMENT_3D ( 'NONE', #196, #98, #313 ) ;
#135 = CARTESIAN_POINT ( 'NONE',  ( 35.00000000000000000, 0.0000000000000000000, 3.000000000000011500 ) ) ;
#136 = CARTESIAN_POINT ( 'NONE',  ( 47.31481481481482400, 0.0000000000000000000, 7.493131855154878500 ) ) ;
#137 = STYLED_ITEM ( 'NONE', ( #6 ), #288 ) ;
#138 = FACE_OUTER_BOUND ( 'NONE', #291, .T. ) ;
#139 = DIRECTION ( 'NONE',  ( -0.0000000000000000000, 0.0000000000000000000, -1.000000000000000000 ) ) ;
#140 = DIRECTION ( 'NONE',  ( 0.0000000000000000000, 0.0000000000000000000, 1.000000000000000000 ) ) ;
#141 = FACE_OUTER_BOUND ( 'NONE', #59, .T. ) ;
#142 = ORIENTED_EDGE ( 'NONE', *, *, #277, .F. ) ;
#143 = CARTESIAN_POINT ( 'NONE',  ( 47.50000000000000000, 0.0000000000000000000, 11.24999999999999800 ) ) ;
#144 = AXIS2_PLACEMENT_3D ( 'NONE', #331, #42, #153 ) ;
#145 = ORIENTED_EDGE ( 'NONE', *, *, #244, .F. ) ;
#146 = CARTESIAN_POINT ( 'NONE',  ( 32.50000000000000000, 0.0000000000000000000, 1.169537693185722600E-014 ) ) ;
#147 = AXIS2_PLACEMENT_3D ( 'NONE', #135, #139, #287 ) ;
#148 = ADVANCED_FACE ( 'NONE', ( #44, #347 ), #229, .T. ) ;
#149 = CONICAL_SURFACE ( 'NONE', #336, 47.50000000000000000, 0.7853981633974488300 ) ;
#150 = EDGE_LOOP ( 'NONE', ( #199 ) ) ;
#151 = PRODUCT_DEFINITION_FORMATION_WITH_SPECIFIED_SOURCE ( 'ANY', '', #128, .NOT_KNOWN. ) ;
#152 = ADVANCED_FACE ( 'NONE', ( #36, #254 ), #166, .T. ) ;
#153 = DIRECTION ( 'NONE',  ( 1.000000000000000000, 0.0000000000000000000, 0.0000000000000000000 ) ) ;
#154 = UNCERTAINTY_MEASURE_WITH_UNIT (LENGTH_MEASURE( 1.000000000000000100E-005 ), #18, 'distance_accuracy_value', 'NONE');
#155 = FACE_OUTER_BOUND ( 'NONE', #101, .T. ) ;
#156 = ORIENTED_EDGE ( 'NONE', *, *, #299, .T. ) ;
#157 = ORIENTED_EDGE ( 'NONE', *, *, #35, .F. ) ;
#158 = AXIS2_PLACEMENT_3D ( 'NONE', #171, #350, #28 ) ;
#159 = EDGE_CURVE ( 'NONE', #226, #226, #330, .T. ) ;
#160 = FACE_OUTER_BOUND ( 'NONE', #283, .T. ) ;
#161 = SURFACE_STYLE_FILL_AREA ( #49 ) ;
#162 = FACE_OUTER_BOUND ( 'NONE', #127, .T. ) ;
#163 = CARTESIAN_POINT ( 'NONE',  ( 0.0000000000000000000, 0.0000000000000000000, 0.0000000000000000000 ) ) ;
#164 = ORIENTED_EDGE ( 'NONE', *, *, #319, .T. ) ;
#165 = CARTESIAN_POINT ( 'NONE',  ( 45.00000000000000000, 0.0000000000000000000, 9.999999999999994700 ) ) ;
#166 = CONICAL_SURFACE ( 'NONE', #14, 46.75000000000000000, 0.7853981633974482800 ) ;
#167 = CARTESIAN_POINT ( 'NONE',  ( 47.31481481481482400, 0.0000000000000000000, 2.506868144845146900 ) ) ;
#168 = EDGE_LOOP ( 'NONE', ( #326 ) ) ;
#169 = AXIS2_PLACEMENT_3D ( 'NONE', #280, #252, #129 ) ;
#170 = CIRCLE ( 'NONE', #169, 47.50000000000000700 ) ;
#171 = CARTESIAN_POINT ( 'NONE',  ( 0.0000000000000000000, 0.0000000000000000000, 9.999999999999994700 ) ) ;
#172 = FACE_OUTER_BOUND ( 'NONE', #81, .T. ) ;
#173 = DIRECTION ( 'NONE',  ( 0.0000000000000000000, 0.0000000000000000000, 1.000000000000000000 ) ) ;
#174 = ORIENTED_EDGE ( 'NONE', *, *, #35, .T. ) ;
#175 = EDGE_CURVE ( 'NONE', #372, #372, #27, .T. ) ;
#176 = CARTESIAN_POINT ( 'NONE',  ( 0.0000000000000000000, 0.0000000000000000000, 0.0000000000000000000 ) ) ;
#177 = ADVANCED_FACE ( 'NONE', ( #162, #138 ), #34, .F. ) ;
#178 = FACE_OUTER_BOUND ( 'NONE', #13, .T. ) ;
#179 = ADVANCED_FACE ( 'NONE', ( #172, #297 ), #26, .T. ) ;
#180 = CARTESIAN_POINT ( 'NONE',  ( 0.0000000000000000000, 0.0000000000000000000, 1.138921523207038500E-014 ) ) ;
#181 = CARTESIAN_POINT ( 'NONE',  ( 0.0000000000000000000, 0.0000000000000000000, 3.000000000000012000 ) ) ;
#182 = TOROIDAL_SURFACE ( 'NONE', #124, 47.50000000000000000, 2.500000000000000000 ) ;
#183 = AXIS2_PLACEMENT_3D ( 'NONE', #176, #236, #52 ) ;
#184 = EDGE_LOOP ( 'NONE', ( #312 ) ) ;
#185 = FILL_AREA_STYLE ('',( #379 ) ) ;
#186 = ORIENTED_EDGE ( 'NONE', *, *, #69, .F. ) ;
#187 = ORIENTED_EDGE ( 'NONE', *, *, #159, .F. ) ;
#188 = PLANE ( 'NONE',  #286 ) ;
#189 = CIRCLE ( 'NONE', #107, 46.75000000000000000 ) ;
#190 = DIRECTION ( 'NONE',  ( -1.000000000000000000, 0.0000000000000000000, 0.0000000000000000000 ) ) ;
#191 = PLANE ( 'NONE',  #296 ) ;
#192 = EDGE_CURVE ( 'NONE', #356, #356, #79, .T. ) ;
#193 = DIRECTION ( 'NONE',  ( 1.000000000000000000, 0.0000000000000000000, 0.0000000000000000000 ) ) ;
#194 = ORIENTED_EDGE ( 'NONE', *, *, #192, .F. ) ;
#195 = CARTESIAN_POINT ( 'NONE',  ( 0.0000000000000000000, 0.0000000000000000000, 9.950255243072245000E-015 ) ) ;
#196 = CARTESIAN_POINT ( 'NONE',  ( 0.0000000000000000000, 0.0000000000000000000, 0.0000000000000000000 ) ) ;
#197 = EDGE_CURVE ( 'NONE', #64, #64, #43, .T. ) ;
#198 = SHAPE_DEFINITION_REPRESENTATION ( #335, #120 ) ;
#199 = ORIENTED_EDGE ( 'NONE', *, *, #221, .T. ) ;
#200 = DIRECTION ( 'NONE',  ( 1.000000000000000000, 0.0000000000000000000, 0.0000000000000000000 ) ) ;
#201 = DIRECTION ( 'NONE',  ( 1.000000000000000000, 0.0000000000000000000, 0.0000000000000000000 ) ) ;
#202 = CARTESIAN_POINT ( 'NONE',  ( 47.50000000000000000, 0.0000000000000000000, 7.692582403567263000 ) ) ;
#203 = AXIS2_PLACEMENT_3D ( 'NONE', #181, #122, #361 ) ;
#204 = FACE_OUTER_BOUND ( 'NONE', #40, .T. ) ;
#205 = FACE_OUTER_BOUND ( 'NONE', #251, .T. ) ;
#206 = EDGE_CURVE ( 'NONE', #345, #345, #270, .T. ) ;
#207 = DIRECTION ( 'NONE',  ( 1.000000000000000000, 0.0000000000000000000, 0.0000000000000000000 ) ) ;
#208 = DIRECTION ( 'NONE',  ( 0.0000000000000000000, 0.0000000000000000000, 1.000000000000000000 ) ) ;
#209 = ORIENTED_EDGE ( 'NONE', *, *, #175, .T. ) ;
#210 = DIRECTION ( 'NONE',  ( 1.000000000000000000, 0.0000000000000000000, 0.0000000000000000000 ) ) ;
#211 = ORIENTED_EDGE ( 'NONE', *, *, #197, .T. ) ;
#212 = ADVANCED_FACE ( 'NONE', ( #218, #116 ), #360, .T. ) ;
#213 = AXIS2_PLACEMENT_3D ( 'NONE', #17, #225, #47 ) ;
#214 = ORIENTED_EDGE ( 'NONE', *, *, #328, .F. ) ;
#215 = SURFACE_SIDE_STYLE ('',( #62 ) ) ;
#216 = PRODUCT_DEFINITION_CONTEXT ( 'detailed design', #114, 'design' ) ;
#217 = VERTEX_POINT ( 'NONE', #136 ) ;
#218 = FACE_OUTER_BOUND ( 'NONE', #150, .T. ) ;
#219 = ORIENTED_EDGE ( 'NONE', *, *, #259, .F. ) ;
#220 = MECHANICAL_DESIGN_GEOMETRIC_PRESENTATION_REPRESENTATION (  '', ( #137 ), #317 ) ;
#221 = EDGE_CURVE ( 'NONE', #301, #301, #363, .T. ) ;
#222 = UNCERTAINTY_MEASURE_WITH_UNIT (LENGTH_MEASURE( 1.000000000000000100E-005 ), #39, 'distance_accuracy_value', 'NONE');
#223 = DIRECTION ( 'NONE',  ( 0.0000000000000000000, 0.0000000000000000000, 1.000000000000000000 ) ) ;
#224 = PRODUCT_DEFINITION ( 'UNKNOWN', '', #151, #216 ) ;
#225 = DIRECTION ( 'NONE',  ( -0.0000000000000000000, 0.0000000000000000000, -1.000000000000000000 ) ) ;
#226 = VERTEX_POINT ( 'NONE', #315 ) ;
#227 = EDGE_LOOP ( 'NONE', ( #164 ) ) ;
#228 =( NAMED_UNIT ( * ) SI_UNIT ( $, .STERADIAN. ) SOLID_ANGLE_UNIT ( ) );
#229 = PLANE ( 'NONE',  #147 ) ;
#230 = SURFACE_STYLE_USAGE ( .BOTH. , #266 ) ;
#231 = DIRECTION ( 'NONE',  ( 1.000000000000000000, 0.0000000000000000000, 0.0000000000000000000 ) ) ;
#232 = AXIS2_PLACEMENT_3D ( 'NONE', #29, #173, #348 ) ;
#233 = VERTEX_POINT ( 'NONE', #267 ) ;
#234 = DIRECTION ( 'NONE',  ( 0.0000000000000000000, 0.0000000000000000000, 1.000000000000000000 ) ) ;
#235 = CARTESIAN_POINT ( 'NONE',  ( 0.0000000000000000000, 0.0000000000000000000, 11.99999999999999800 ) ) ;
#236 = DIRECTION ( 'NONE',  ( 0.0000000000000000000, 0.0000000000000000000, 1.000000000000000000 ) ) ;
#237 = ORIENTED_EDGE ( 'NONE', *, *, #175, .F. ) ;
#238 =( NAMED_UNIT ( * ) PLANE_ANGLE_UNIT ( ) SI_UNIT ( $, .RADIAN. ) );
#239 = CARTESIAN_POINT ( 'NONE',  ( 0.0000000000000000000, 0.0000000000000000000, 3.000000000000011500 ) ) ;
#240 = AXIS2_PLACEMENT_3D ( 'NONE', #308, #366, #190 ) ;
#241 = CARTESIAN_POINT ( 'NONE',  ( 0.0000000000000000000, 0.0000000000000000000, 5.000000000000010700 ) ) ;
#242 = AXIS2_PLACEMENT_3D ( 'NONE', #258, #281, #46 ) ;
#243 = CARTESIAN_POINT ( 'NONE',  ( 0.0000000000000000000, 0.0000000000000000000, 0.0000000000000000000 ) ) ;
#244 = EDGE_CURVE ( 'NONE', #130, #130, #316, .T. ) ;
#245 = DIRECTION ( 'NONE',  ( 1.000000000000000000, 0.0000000000000000000, 0.0000000000000000000 ) ) ;
#246 = FACE_OUTER_BOUND ( 'NONE', #256, .T. ) ;
#247 = TOROIDAL_SURFACE ( 'NONE', #242, 47.30000000000001100, 0.1999999999999957600 ) ;
#248 = FACE_OUTER_BOUND ( 'NONE', #302, .T. ) ;
#249 =( NAMED_UNIT ( * ) PLANE_ANGLE_UNIT ( ) SI_UNIT ( $, .RADIAN. ) );
#250 = FACE_OUTER_BOUND ( 'NONE', #227, .T. ) ;
#251 = EDGE_LOOP ( 'NONE', ( #209 ) ) ;
#252 = DIRECTION ( 'NONE',  ( 0.0000000000000000000, 0.0000000000000000000, 1.000000000000000000 ) ) ;
#253 = FACE_BOUND ( 'NONE', #184, .T. ) ;
#254 = FACE_BOUND ( 'NONE', #8, .T. ) ;
#255 = DIRECTION ( 'NONE',  ( 0.0000000000000000000, 0.0000000000000000000, 1.000000000000000000 ) ) ;
#256 = EDGE_LOOP ( 'NONE', ( #268 ) ) ;
#257 = APPLICATION_PROTOCOL_DEFINITION ( 'draft international standard', 'automotive_design', 1998, #58 ) ;
#258 = CARTESIAN_POINT ( 'NONE',  ( 0.0000000000000000000, 0.0000000000000000000, 7.692582403567263000 ) ) ;
#259 = EDGE_CURVE ( 'NONE', #290, #290, #309, .T. ) ;
#260 = DIRECTION ( 'NONE',  ( 0.0000000000000000000, 0.0000000000000000000, 1.000000000000000000 ) ) ;
#261 = DIRECTION ( 'NONE',  ( 1.000000000000000000, 0.0000000000000000000, 0.0000000000000000000 ) ) ;
#262 = FACE_BOUND ( 'NONE', #67, .T. ) ;
#263 = DIRECTION ( 'NONE',  ( 1.000000000000000000, 0.0000000000000000000, 0.0000000000000000000 ) ) ;
#264 = CYLINDRICAL_SURFACE ( 'NONE', #10, 47.50000000000000000 ) ;
#265 = EDGE_LOOP ( 'NONE', ( #174 ) ) ;
#266 = SURFACE_SIDE_STYLE ('',( #161 ) ) ;
#267 = CARTESIAN_POINT ( 'NONE',  ( 40.00000000000000700, 0.0000000000000000000, 11.99999999999999800 ) ) ;
#268 = ORIENTED_EDGE ( 'NONE', *, *, #131, .T. ) ;
#269 = DIRECTION ( 'NONE',  ( 0.0000000000000000000, 0.0000000000000000000, 1.000000000000000000 ) ) ;
#270 = CIRCLE ( 'NONE', #358, 45.00000000000000000 ) ;
#271 = CIRCLE ( 'NONE', #300, 40.00000000000000700 ) ;
#272 = DIRECTION ( 'NONE',  ( 1.000000000000000000, 0.0000000000000000000, 0.0000000000000000000 ) ) ;
#273 = UNCERTAINTY_MEASURE_WITH_UNIT (LENGTH_MEASURE( 1.000000000000000100E-005 ), #83, 'distance_accuracy_value', 'NONE');
#274 = EDGE_LOOP ( 'NONE', ( #219 ) ) ;
#275 = PRODUCT_RELATED_PRODUCT_CATEGORY ( 'part', '', ( #128 ) ) ;
#276 = COLOUR_RGB ( '',0.6470588235294118000, 0.6196078431372549200, 0.5882352941176470800 ) ;
#277 = EDGE_CURVE ( 'NONE', #53, #53, #282, .T. ) ;
#278 = FACE_OUTER_BOUND ( 'NONE', #106, .T. ) ;
#279 = PLANE ( 'NONE',  #240 ) ;
#280 = CARTESIAN_POINT ( 'NONE',  ( 0.0000000000000000000, 0.0000000000000000000, 2.307417596432758300 ) ) ;
#281 = DIRECTION ( 'NONE',  ( 0.0000000000000000000, 0.0000000000000000000, 1.000000000000000000 ) ) ;
#282 = CIRCLE ( 'NONE', #203, 32.50000000000000000 ) ;
#283 = EDGE_LOOP ( 'NONE', ( #194 ) ) ;
#284 = DIRECTION ( 'NONE',  ( 1.000000000000000000, 0.0000000000000000000, 0.0000000000000000000 ) ) ;
#285 = CARTESIAN_POINT ( 'NONE',  ( 46.75000000000000000, 0.0000000000000000000, 11.99999999999999800 ) ) ;
#286 = AXIS2_PLACEMENT_3D ( 'NONE', #9, #68, #125 ) ;
#287 = DIRECTION ( 'NONE',  ( -1.000000000000000000, 0.0000000000000000000, 0.0000000000000000000 ) ) ;
#288 = MANIFOLD_SOLID_BREP ( 'Révolution1', #307 ) ;
#289 =( NAMED_UNIT ( * ) PLANE_ANGLE_UNIT ( ) SI_UNIT ( $, .RADIAN. ) );
#290 = VERTEX_POINT ( 'NONE', #146 ) ;
#291 = EDGE_LOOP ( 'NONE', ( #322 ) ) ;
#292 = CARTESIAN_POINT ( 'NONE',  ( 35.00000000000000000, 0.0000000000000000000, 1.138921523207038500E-014 ) ) ;
#293 = DIRECTION ( 'NONE',  ( 0.0000000000000000000, 0.0000000000000000000, 1.000000000000000000 ) ) ;
#294 = ADVANCED_FACE ( 'NONE', ( #204, #155 ), #264, .T. ) ;
#295 = DIRECTION ( 'NONE',  ( 0.0000000000000000000, 0.0000000000000000000, 1.000000000000000000 ) ) ;
#296 = AXIS2_PLACEMENT_3D ( 'NONE', #314, #260, #367 ) ;
#297 = FACE_OUTER_BOUND ( 'NONE', #23, .T. ) ;
#298 = ADVANCED_FACE ( 'NONE', ( #126, #160 ), #149, .T. ) ;
#299 = EDGE_CURVE ( 'NONE', #88, #88, #170, .T. ) ;
#300 = AXIS2_PLACEMENT_3D ( 'NONE', #342, #50, #261 ) ;
#301 = VERTEX_POINT ( 'NONE', #202 ) ;
#302 = EDGE_LOOP ( 'NONE', ( #145 ) ) ;
#303 = EDGE_LOOP ( 'NONE', ( #71 ) ) ;
#304 = PRESENTATION_LAYER_ASSIGNMENT (  '', '', ( #137 ) ) ;
#305 = CARTESIAN_POINT ( 'NONE',  ( 0.0000000000000000000, 0.0000000000000000000, 7.493131855154878500 ) ) ;
#306 = CIRCLE ( 'NONE', #33, 47.31481481481482400 ) ;
#307 = CLOSED_SHELL ( 'NONE', ( #179, #86, #325, #85, #112, #177, #353, #152, #212, #80, #332, #377, #294, #298, #37, #1, #148 ) ) ;
#308 = CARTESIAN_POINT ( 'NONE',  ( 32.50000000000000000, 0.0000000000000000000, 5.847688465928612800E-015 ) ) ;
#309 = CIRCLE ( 'NONE', #144, 32.50000000000000000 ) ;
#310 = AXIS2_PLACEMENT_3D ( 'NONE', #163, #255, #99 ) ;
#311 = ORIENTED_EDGE ( 'NONE', *, *, #299, .F. ) ;
#312 = ORIENTED_EDGE ( 'NONE', *, *, #197, .F. ) ;
#313 = DIRECTION ( 'NONE',  ( 1.000000000000000000, 0.0000000000000000000, 0.0000000000000000000 ) ) ;
#314 = CARTESIAN_POINT ( 'NONE',  ( 45.00000000000000000, 0.0000000000000000000, 11.99999999999999800 ) ) ;
#315 = CARTESIAN_POINT ( 'NONE',  ( 40.00000000000000700, 0.0000000000000000000, 9.999999999999994700 ) ) ;
#316 = CIRCLE ( 'NONE', #97, 35.00000000000000000 ) ;
#317 =( GEOMETRIC_REPRESENTATION_CONTEXT ( 3 ) GLOBAL_UNCERTAINTY_ASSIGNED_CONTEXT ( ( #222 ) ) GLOBAL_UNIT_ASSIGNED_CONTEXT ( ( #39, #249, #91 ) ) REPRESENTATION_CONTEXT ( 'NONE', 'WORKASPACE' ) );
#318 = DIRECTION ( 'NONE',  ( 1.000000000000000000, 0.0000000000000000000, 0.0000000000000000000 ) ) ;
#319 = EDGE_CURVE ( 'NONE', #217, #217, #306, .T. ) ;
#320 = DIRECTION ( 'NONE',  ( -0.0000000000000000000, -0.0000000000000000000, -1.000000000000000000 ) ) ;
#321 = VERTEX_POINT ( 'NONE', #285 ) ;
#322 = ORIENTED_EDGE ( 'NONE', *, *, #206, .F. ) ;
#323 = DIRECTION ( 'NONE',  ( 0.0000000000000000000, 0.0000000000000000000, 1.000000000000000000 ) ) ;
#324 = CARTESIAN_POINT ( 'NONE',  ( 32.50000000000000000, 0.0000000000000000000, 3.000000000000012000 ) ) ;
#325 = ADVANCED_FACE ( 'NONE', ( #76 ), #188, .T. ) ;
#326 = ORIENTED_EDGE ( 'NONE', *, *, #115, .T. ) ;
#327 = ORIENTED_EDGE ( 'NONE', *, *, #277, .T. ) ;
#328 = EDGE_CURVE ( 'NONE', #20, #20, #2, .T. ) ;
#329 = FACE_OUTER_BOUND ( 'NONE', #303, .T. ) ;
#330 = CIRCLE ( 'NONE', #158, 40.00000000000000700 ) ;
#331 = CARTESIAN_POINT ( 'NONE',  ( 0.0000000000000000000, 0.0000000000000000000, 1.169537693185722600E-014 ) ) ;
#332 = ADVANCED_FACE ( 'NONE', ( #329, #141 ), #182, .F. ) ;
#333 = AXIS2_PLACEMENT_3D ( 'NONE', #4, #293, #109 ) ;
#334 = CYLINDRICAL_SURFACE ( 'NONE', #232, 35.00000000000000000 ) ;
#335 = PRODUCT_DEFINITION_SHAPE ( 'NONE', 'NONE',  #224 ) ;
#336 = AXIS2_PLACEMENT_3D ( 'NONE', #92, #5, #210 ) ;
#337 = DIRECTION ( 'NONE',  ( 1.000000000000000000, 0.0000000000000000000, 0.0000000000000000000 ) ) ;
#338 = PRODUCT_CONTEXT ( 'NONE', #58, 'mechanical' ) ;
#339 = EDGE_LOOP ( 'NONE', ( #156 ) ) ;
#340 = CARTESIAN_POINT ( 'NONE',  ( 0.0000000000000000000, 0.0000000000000000000, 2.307417596432758300 ) ) ;
#341 = ORIENTED_EDGE ( 'NONE', *, *, #115, .F. ) ;
#342 = CARTESIAN_POINT ( 'NONE',  ( 0.0000000000000000000, 0.0000000000000000000, 11.99999999999999800 ) ) ;
#343 = CARTESIAN_POINT ( 'NONE',  ( 47.50000000000000700, 0.0000000000000000000, 2.307417596432758300 ) ) ;
#344 = AXIS2_PLACEMENT_3D ( 'NONE', #96, #223, #337 ) ;
#345 = VERTEX_POINT ( 'NONE', #165 ) ;
#346 = STYLED_ITEM ( 'NONE', ( #355 ), #120 ) ;
#347 = FACE_OUTER_BOUND ( 'NONE', #72, .T. ) ;
#348 = DIRECTION ( 'NONE',  ( 1.000000000000000000, 0.0000000000000000000, 0.0000000000000000000 ) ) ;
#349 = CARTESIAN_POINT ( 'NONE',  ( 35.00000000000000000, 0.0000000000000000000, 3.000000000000011500 ) ) ;
#350 = DIRECTION ( 'NONE',  ( 0.0000000000000000000, 0.0000000000000000000, 1.000000000000000000 ) ) ;
#351 = EDGE_LOOP ( 'NONE', ( #187 ) ) ;
#352 = EDGE_LOOP ( 'NONE', ( #341 ) ) ;
#353 = ADVANCED_FACE ( 'NONE', ( #246, #253 ), #191, .T. ) ;
#354 = CARTESIAN_POINT ( 'NONE',  ( 0.0000000000000000000, 0.0000000000000000000, 0.0000000000000000000 ) ) ;
#355 = PRESENTATION_STYLE_ASSIGNMENT (( #230 ) ) ;
#356 = VERTEX_POINT ( 'NONE', #84 ) ;
#357 = FACE_OUTER_BOUND ( 'NONE', #110, .T. ) ;
#358 = AXIS2_PLACEMENT_3D ( 'NONE', #61, #295, #359 ) ;
#359 = DIRECTION ( 'NONE',  ( 1.000000000000000000, 0.0000000000000000000, 0.0000000000000000000 ) ) ;
#360 = CYLINDRICAL_SURFACE ( 'NONE', #87, 47.50000000000000000 ) ;
#361 = DIRECTION ( 'NONE',  ( 1.000000000000000000, 0.0000000000000000000, 0.0000000000000000000 ) ) ;
#362 = ORIENTED_EDGE ( 'NONE', *, *, #69, .T. ) ;
#363 = CIRCLE ( 'NONE', #113, 47.50000000000000000 ) ;
#364 = MECHANICAL_DESIGN_GEOMETRIC_PRESENTATION_REPRESENTATION (  '', ( #346 ), #45 ) ;
#365 = DIRECTION ( 'NONE',  ( 0.0000000000000000000, 0.0000000000000000000, 1.000000000000000000 ) ) ;
#366 = DIRECTION ( 'NONE',  ( -0.0000000000000000000, 0.0000000000000000000, -1.000000000000000000 ) ) ;
#367 = DIRECTION ( 'NONE',  ( 1.000000000000000000, 0.0000000000000000000, -0.0000000000000000000 ) ) ;
#368 = ORIENTED_EDGE ( 'NONE', *, *, #206, .T. ) ;
#369 = DIRECTION ( 'NONE',  ( 0.0000000000000000000, 0.0000000000000000000, 1.000000000000000000 ) ) ;
#370 = CARTESIAN_POINT ( 'NONE',  ( 40.00000000000000700, 0.0000000000000000000, 9.999999999999994700 ) ) ;
#371 = FILL_AREA_STYLE_COLOUR ( '', #75 ) ;
#372 = VERTEX_POINT ( 'NONE', #349 ) ;
#373 = CARTESIAN_POINT ( 'NONE',  ( 0.0000000000000000000, 0.0000000000000000000, 11.99999999999999800 ) ) ;
#374 = VERTEX_POINT ( 'NONE', #143 ) ;
#375 = ORIENTED_EDGE ( 'NONE', *, *, #319, .F. ) ;
#376 = ORIENTED_EDGE ( 'NONE', *, *, #131, .F. ) ;
#377 = ADVANCED_FACE ( 'NONE', ( #54, #11 ), #70, .T. ) ;
#378 = CARTESIAN_POINT ( 'NONE',  ( 46.75000000000000000, 0.0000000000000000000, 9.950255243072245000E-015 ) ) ;
#379 = FILL_AREA_STYLE_COLOUR ( '', #276 ) ;
#380 = DIRECTION ( 'NONE',  ( 0.0000000000000000000, 0.0000000000000000000, 1.000000000000000000 ) ) ;
ENDSEC;
END-ISO-10303-21;
