ISO-10303-21;
HEADER;
FILE_DESCRIPTION (( 'STEP AP214' ),
    '1' );
FILE_NAME ('BP1ISOK250.STEP',
    '2024-05-27T13:07:12',
    ( '' ),
    ( '' ),
    'SwSTEP 2.0',
    'SolidWorks 2017',
    '' );
FILE_SCHEMA (( 'AUTOMOTIVE_DESIGN' ));
ENDSEC;

DATA;
#1 = VERTEX_POINT ( 'NONE', #135 ) ;
#2 = ADVANCED_FACE ( 'NONE', ( #325, #283 ), #204, .T. ) ;
#3 = TOROIDAL_SURFACE ( 'NONE', #328, 144.7999999999999500, 0.2000000000000040900 ) ;
#4 = DIRECTION ( 'NONE',  ( 0.0000000000000000000, 0.0000000000000000000, 1.000000000000000000 ) ) ;
#5 = CYLINDRICAL_SURFACE ( 'NONE', #130, 144.9999999999999700 ) ;
#6 = EDGE_LOOP ( 'NONE', ( #279 ) ) ;
#7 = PRESENTATION_LAYER_ASSIGNMENT (  '', '', ( #21 ) ) ;
#8 = FACE_OUTER_BOUND ( 'NONE', #316, .T. ) ;
#9 = CYLINDRICAL_SURFACE ( 'NONE', #91, 128.0000000000000000 ) ;
#10 = DIRECTION ( 'NONE',  ( 1.000000000000000000, 0.0000000000000000000, 0.0000000000000000000 ) ) ;
#11 = PLANE ( 'NONE',  #151 ) ;
#12 = FACE_OUTER_BOUND ( 'NONE', #156, .T. ) ;
#13 = PRODUCT_DEFINITION_CONTEXT ( 'detailed design', #380, 'design' ) ;
#14 = EDGE_LOOP ( 'NONE', ( #113 ) ) ;
#15 = EDGE_LOOP ( 'NONE', ( #361 ) ) ;
#16 = DIRECTION ( 'NONE',  ( 1.000000000000000000, 0.0000000000000000000, 0.0000000000000000000 ) ) ;
#17 = ORIENTED_EDGE ( 'NONE', *, *, #132, .T. ) ;
#18 = DIRECTION ( 'NONE',  ( 0.0000000000000000000, 0.0000000000000000000, 1.000000000000000000 ) ) ;
#19 = CARTESIAN_POINT ( 'NONE',  ( 142.5000000000000000, 0.0000000000000000000, 11.99999999999999800 ) ) ;
#20 = VERTEX_POINT ( 'NONE', #275 ) ;
#21 = STYLED_ITEM ( 'NONE', ( #180 ), #50 ) ;
#22 = CIRCLE ( 'NONE', #298, 144.2500000000000000 ) ;
#23 = CARTESIAN_POINT ( 'NONE',  ( 136.1500000000000100, 0.0000000000000000000, 9.999999999999994700 ) ) ;
#24 = FACE_OUTER_BOUND ( 'NONE', #148, .T. ) ;
#25 = FILL_AREA_STYLE ('',( #190 ) ) ;
#26 = PLANE ( 'NONE',  #59 ) ;
#27 = AXIS2_PLACEMENT_3D ( 'NONE', #77, #242, #44 ) ;
#28 = ORIENTED_EDGE ( 'NONE', *, *, #128, .T. ) ;
#29 = ORIENTED_EDGE ( 'NONE', *, *, #284, .F. ) ;
#30 = FILL_AREA_STYLE ('',( #277 ) ) ;
#31 = FACE_OUTER_BOUND ( 'NONE', #259, .T. ) ;
#32 = EDGE_LOOP ( 'NONE', ( #103 ) ) ;
#33 = EDGE_LOOP ( 'NONE', ( #265 ) ) ;
#34 = EDGE_LOOP ( 'NONE', ( #248 ) ) ;
#35 = DIRECTION ( 'NONE',  ( 0.0000000000000000000, 0.0000000000000000000, 1.000000000000000000 ) ) ;
#36 = EDGE_CURVE ( 'NONE', #314, #314, #270, .T. ) ;
#37 = COLOUR_RGB ( '',0.6470588235294118000, 0.6196078431372549200, 0.5882352941176470800 ) ;
#38 = EDGE_LOOP ( 'NONE', ( #299 ) ) ;
#39 = CARTESIAN_POINT ( 'NONE',  ( 0.0000000000000000000, 0.0000000000000000000, 9.999999999999994700 ) ) ;
#40 = AXIS2_PLACEMENT_3D ( 'NONE', #285, #267, #368 ) ;
#41 = EDGE_LOOP ( 'NONE', ( #17 ) ) ;
#42 = DIRECTION ( 'NONE',  ( 0.0000000000000000000, 0.0000000000000000000, 1.000000000000000000 ) ) ;
#43 = PRODUCT_RELATED_PRODUCT_CATEGORY ( 'part', '', ( #179 ) ) ;
#44 = DIRECTION ( 'NONE',  ( 1.000000000000000000, 0.0000000000000000000, 0.0000000000000000000 ) ) ;
#45 = CIRCLE ( 'NONE', #238, 130.5000000000000000 ) ;
#46 = ORIENTED_EDGE ( 'NONE', *, *, #334, .F. ) ;
#47 = EDGE_CURVE ( 'NONE', #82, #82, #172, .T. ) ;
#48 =( NAMED_UNIT ( * ) PLANE_ANGLE_UNIT ( ) SI_UNIT ( $, .RADIAN. ) );
#49 = CARTESIAN_POINT ( 'NONE',  ( 0.0000000000000000000, 0.0000000000000000000, 11.99999999999999600 ) ) ;
#50 = ADVANCED_BREP_SHAPE_REPRESENTATION ( 'BP1ISOK250', ( #193, #271 ), #335 ) ;
#51 = CARTESIAN_POINT ( 'NONE',  ( 0.0000000000000000000, 0.0000000000000000000, 0.0000000000000000000 ) ) ;
#52 = ORIENTED_EDGE ( 'NONE', *, *, #208, .F. ) ;
#53 = APPLICATION_PROTOCOL_DEFINITION ( 'draft international standard', 'automotive_design', 1998, #168 ) ;
#54 = VERTEX_POINT ( 'NONE', #240 ) ;
#55 = FACE_OUTER_BOUND ( 'NONE', #330, .T. ) ;
#56 = CARTESIAN_POINT ( 'NONE',  ( 0.0000000000000000000, 0.0000000000000000000, 0.0000000000000000000 ) ) ;
#57 = PLANE ( 'NONE',  #40 ) ;
#58 = FACE_OUTER_BOUND ( 'NONE', #41, .T. ) ;
#59 = AXIS2_PLACEMENT_3D ( 'NONE', #134, #18, #374 ) ;
#60 = EDGE_LOOP ( 'NONE', ( #192 ) ) ;
#61 = PLANE ( 'NONE',  #379 ) ;
#62 = AXIS2_PLACEMENT_3D ( 'NONE', #181, #42, #369 ) ;
#63 = CARTESIAN_POINT ( 'NONE',  ( 0.0000000000000000000, 0.0000000000000000000, 7.493131855154859800 ) ) ;
#64 = CARTESIAN_POINT ( 'NONE',  ( 0.0000000000000000000, 0.0000000000000000000, 11.99999999999999600 ) ) ;
#65 = DIRECTION ( 'NONE',  ( 0.0000000000000000000, 0.0000000000000000000, 1.000000000000000000 ) ) ;
#66 = DIRECTION ( 'NONE',  ( 0.0000000000000000000, 0.0000000000000000000, 1.000000000000000000 ) ) ;
#67 = FACE_OUTER_BOUND ( 'NONE', #32, .T. ) ;
#68 = ORIENTED_EDGE ( 'NONE', *, *, #47, .T. ) ;
#69 = AXIS2_PLACEMENT_3D ( 'NONE', #214, #266, #300 ) ;
#70 = VERTEX_POINT ( 'NONE', #336 ) ;
#71 = FACE_OUTER_BOUND ( 'NONE', #162, .T. ) ;
#72 = DIRECTION ( 'NONE',  ( 1.000000000000000000, 0.0000000000000000000, 0.0000000000000000000 ) ) ;
#73 = EDGE_CURVE ( 'NONE', #303, #303, #92, .T. ) ;
#74 = CARTESIAN_POINT ( 'NONE',  ( 144.9999999999999700, 0.0000000000000000000, 2.307417596432749500 ) ) ;
#75 = CARTESIAN_POINT ( 'NONE',  ( 145.0000000000000000, 0.0000000000000000000, 11.24999999999999600 ) ) ;
#76 = ORIENTED_EDGE ( 'NONE', *, *, #110, .F. ) ;
#77 = CARTESIAN_POINT ( 'NONE',  ( 0.0000000000000000000, 0.0000000000000000000, 9.999999999999994700 ) ) ;
#78 = AXIS2_PLACEMENT_3D ( 'NONE', #237, #66, #72 ) ;
#79 = DIRECTION ( 'NONE',  ( 1.000000000000000000, 0.0000000000000000000, 0.0000000000000000000 ) ) ;
#80 = CARTESIAN_POINT ( 'NONE',  ( 0.0000000000000000000, 0.0000000000000000000, 3.000000000000003100 ) ) ;
#81 = CARTESIAN_POINT ( 'NONE',  ( 0.0000000000000000000, 0.0000000000000000000, 0.0000000000000000000 ) ) ;
#82 = VERTEX_POINT ( 'NONE', #274 ) ;
#83 = PRODUCT_DEFINITION_SHAPE ( 'NONE', 'NONE',  #357 ) ;
#84 = DIRECTION ( 'NONE',  ( 1.000000000000000000, 0.0000000000000000000, 0.0000000000000000000 ) ) ;
#85 = AXIS2_PLACEMENT_3D ( 'NONE', #120, #35, #292 ) ;
#86 = FACE_OUTER_BOUND ( 'NONE', #157, .T. ) ;
#87 = ORIENTED_EDGE ( 'NONE', *, *, #110, .T. ) ;
#88 = CARTESIAN_POINT ( 'NONE',  ( 142.5000000000000000, 0.0000000000000000000, 11.99999999999999600 ) ) ;
#89 = ADVANCED_FACE ( 'NONE', ( #125, #182 ), #61, .T. ) ;
#90 = DIRECTION ( 'NONE',  ( 0.0000000000000000000, 0.0000000000000000000, 1.000000000000000000 ) ) ;
#91 = AXIS2_PLACEMENT_3D ( 'NONE', #81, #224, #142 ) ;
#92 = CIRCLE ( 'NONE', #305, 128.0000000000000000 ) ;
#93 = ADVANCED_FACE ( 'NONE', ( #24, #55 ), #118, .T. ) ;
#94 = CARTESIAN_POINT ( 'NONE',  ( 130.5000000000000000, 0.0000000000000000000, 3.000000000000003600 ) ) ;
#95 = EDGE_CURVE ( 'NONE', #226, #226, #304, .T. ) ;
#96 = CARTESIAN_POINT ( 'NONE',  ( 0.0000000000000000000, 0.0000000000000000000, 2.506868144845140600 ) ) ;
#97 = FACE_OUTER_BOUND ( 'NONE', #158, .T. ) ;
#98 = DIRECTION ( 'NONE',  ( 0.0000000000000000000, 0.0000000000000000000, 1.000000000000000000 ) ) ;
#99 = AXIS2_PLACEMENT_3D ( 'NONE', #51, #341, #79 ) ;
#100 = DIRECTION ( 'NONE',  ( 1.000000000000000000, 0.0000000000000000000, 0.0000000000000000000 ) ) ;
#101 = DIRECTION ( 'NONE',  ( 1.000000000000000000, 0.0000000000000000000, 0.0000000000000000000 ) ) ;
#102 = CIRCLE ( 'NONE', #27, 136.1500000000000100 ) ;
#103 = ORIENTED_EDGE ( 'NONE', *, *, #95, .T. ) ;
#104 = ORIENTED_EDGE ( 'NONE', *, *, #132, .F. ) ;
#105 = PRODUCT_DEFINITION_FORMATION_WITH_SPECIFIED_SOURCE ( 'ANY', '', #179, .NOT_KNOWN. ) ;
#106 = CARTESIAN_POINT ( 'NONE',  ( 0.0000000000000000000, 0.0000000000000000000, 0.0000000000000000000 ) ) ;
#107 = VERTEX_POINT ( 'NONE', #75 ) ;
#108 = CIRCLE ( 'NONE', #276, 144.8148148148147800 ) ;
#109 = ORIENTED_EDGE ( 'NONE', *, *, #354, .T. ) ;
#110 = EDGE_CURVE ( 'NONE', #144, #144, #294, .T. ) ;
#111 = DIRECTION ( 'NONE',  ( 1.000000000000000000, 0.0000000000000000000, 0.0000000000000000000 ) ) ;
#112 =( LENGTH_UNIT ( ) NAMED_UNIT ( * ) SI_UNIT ( .MILLI., .METRE. ) );
#113 = ORIENTED_EDGE ( 'NONE', *, *, #47, .F. ) ;
#114 = DIRECTION ( 'NONE',  ( 0.0000000000000000000, 0.0000000000000000000, 1.000000000000000000 ) ) ;
#115 = PRESENTATION_LAYER_ASSIGNMENT (  '', '', ( #205 ) ) ;
#116 = VERTEX_POINT ( 'NONE', #74 ) ;
#117 =( NAMED_UNIT ( * ) PLANE_ANGLE_UNIT ( ) SI_UNIT ( $, .RADIAN. ) );
#118 = TOROIDAL_SURFACE ( 'NONE', #191, 144.7999999999999800, 0.1999999999999889600 ) ;
#119 = EDGE_LOOP ( 'NONE', ( #28 ) ) ;
#120 = CARTESIAN_POINT ( 'NONE',  ( 0.0000000000000000000, 0.0000000000000000000, 7.692582403567252300 ) ) ;
#121 = DIRECTION ( 'NONE',  ( 1.000000000000000000, 0.0000000000000000000, 0.0000000000000000000 ) ) ;
#122 = EDGE_LOOP ( 'NONE', ( #367 ) ) ;
#123 =( GEOMETRIC_REPRESENTATION_CONTEXT ( 3 ) GLOBAL_UNCERTAINTY_ASSIGNED_CONTEXT ( ( #306 ) ) GLOBAL_UNIT_ASSIGNED_CONTEXT ( ( #164, #48, #378 ) ) REPRESENTATION_CONTEXT ( 'NONE', 'WORKASPACE' ) );
#124 = CIRCLE ( 'NONE', #332, 144.9999999999999700 ) ;
#125 = FACE_BOUND ( 'NONE', #60, .T. ) ;
#126 = DIRECTION ( 'NONE',  ( 1.000000000000000000, 0.0000000000000000000, 0.0000000000000000000 ) ) ;
#127 = FACE_BOUND ( 'NONE', #257, .T. ) ;
#128 = EDGE_CURVE ( 'NONE', #1, #1, #22, .T. ) ;
#129 = EDGE_LOOP ( 'NONE', ( #76 ) ) ;
#130 = AXIS2_PLACEMENT_3D ( 'NONE', #312, #280, #227 ) ;
#131 = PRESENTATION_STYLE_ASSIGNMENT (( #346 ) ) ;
#132 = EDGE_CURVE ( 'NONE', #350, #350, #108, .T. ) ;
#133 = CARTESIAN_POINT ( 'NONE',  ( 0.0000000000000000000, 0.0000000000000000000, 11.99999999999999600 ) ) ;
#134 = CARTESIAN_POINT ( 'NONE',  ( 136.1500000000000100, 0.0000000000000000000, 9.999999999999994700 ) ) ;
#135 = CARTESIAN_POINT ( 'NONE',  ( 144.2500000000000000, 0.0000000000000000000, 1.194030629168666700E-015 ) ) ;
#136 = CARTESIAN_POINT ( 'NONE',  ( 0.0000000000000000000, 0.0000000000000000000, 2.307417596432749500 ) ) ;
#137 = CARTESIAN_POINT ( 'NONE',  ( 130.5000000000000000, 0.0000000000000000000, 2.877919977996279900E-015 ) ) ;
#138 = DIRECTION ( 'NONE',  ( 0.0000000000000000000, 0.0000000000000000000, 1.000000000000000000 ) ) ;
#139 = FACE_OUTER_BOUND ( 'NONE', #33, .T. ) ;
#140 = CARTESIAN_POINT ( 'NONE',  ( 144.8148148148147800, 0.0000000000000000000, 7.493131855154859800 ) ) ;
#141 = ORIENTED_EDGE ( 'NONE', *, *, #334, .T. ) ;
#142 = DIRECTION ( 'NONE',  ( 1.000000000000000000, 0.0000000000000000000, 0.0000000000000000000 ) ) ;
#143 = ADVANCED_FACE ( 'NONE', ( #207, #264 ), #366, .T. ) ;
#144 = VERTEX_POINT ( 'NONE', #245 ) ;
#145 = FACE_BOUND ( 'NONE', #244, .T. ) ;
#146 = DIRECTION ( 'NONE',  ( 0.0000000000000000000, 0.0000000000000000000, 1.000000000000000000 ) ) ;
#147 = CIRCLE ( 'NONE', #160, 144.9999999999999700 ) ;
#148 = EDGE_LOOP ( 'NONE', ( #321 ) ) ;
#149 = DIRECTION ( 'NONE',  ( 1.000000000000000000, 0.0000000000000000000, -0.0000000000000000000 ) ) ;
#150 = AXIS2_PLACEMENT_3D ( 'NONE', #88, #90, #149 ) ;
#151 = AXIS2_PLACEMENT_3D ( 'NONE', #64, #209, #263 ) ;
#152 = ADVANCED_FACE ( 'NONE', ( #155 ), #11, .T. ) ;
#153 = EDGE_CURVE ( 'NONE', #116, #116, #124, .T. ) ;
#154 = DIRECTION ( 'NONE',  ( 0.0000000000000000000, 0.0000000000000000000, 1.000000000000000000 ) ) ;
#155 = FACE_OUTER_BOUND ( 'NONE', #327, .T. ) ;
#156 = EDGE_LOOP ( 'NONE', ( #177 ) ) ;
#157 = EDGE_LOOP ( 'NONE', ( #186 ) ) ;
#158 = EDGE_LOOP ( 'NONE', ( #233 ) ) ;
#159 = DIRECTION ( 'NONE',  ( 1.000000000000000000, 0.0000000000000000000, 0.0000000000000000000 ) ) ;
#160 = AXIS2_PLACEMENT_3D ( 'NONE', #286, #146, #355 ) ;
#161 = FACE_BOUND ( 'NONE', #15, .T. ) ;
#162 = EDGE_LOOP ( 'NONE', ( #174 ) ) ;
#163 =( LENGTH_UNIT ( ) NAMED_UNIT ( * ) SI_UNIT ( .MILLI., .METRE. ) );
#164 =( LENGTH_UNIT ( ) NAMED_UNIT ( * ) SI_UNIT ( .MILLI., .METRE. ) );
#165 = ADVANCED_FACE ( 'NONE', ( #97, #31 ), #307, .F. ) ;
#166 = EDGE_LOOP ( 'NONE', ( #310 ) ) ;
#167 = ADVANCED_FACE ( 'NONE', ( #235, #287 ), #201, .T. ) ;
#168 = APPLICATION_CONTEXT ( 'automotive_design' ) ;
#169 =( NAMED_UNIT ( * ) SI_UNIT ( $, .STERADIAN. ) SOLID_ANGLE_UNIT ( ) );
#170 = VERTEX_POINT ( 'NONE', #137 ) ;
#171 = FACE_OUTER_BOUND ( 'NONE', #14, .T. ) ;
#172 = CIRCLE ( 'NONE', #85, 144.9999999999999700 ) ;
#173 = MECHANICAL_DESIGN_GEOMETRIC_PRESENTATION_REPRESENTATION (  '', ( #21 ), #364 ) ;
#174 = ORIENTED_EDGE ( 'NONE', *, *, #229, .T. ) ;
#175 = ORIENTED_EDGE ( 'NONE', *, *, #95, .F. ) ;
#176 = ADVANCED_FACE ( 'NONE', ( #363, #351 ), #9, .T. ) ;
#177 = ORIENTED_EDGE ( 'NONE', *, *, #36, .T. ) ;
#178 = DIRECTION ( 'NONE',  ( 0.0000000000000000000, 0.0000000000000000000, 1.000000000000000000 ) ) ;
#179 = PRODUCT ( 'BP1ISOK250', 'BP1ISOK250', '', ( #253 ) ) ;
#180 = PRESENTATION_STYLE_ASSIGNMENT (( #197 ) ) ;
#181 = CARTESIAN_POINT ( 'NONE',  ( 0.0000000000000000000, 0.0000000000000000000, 0.0000000000000000000 ) ) ;
#182 = FACE_OUTER_BOUND ( 'NONE', #34, .T. ) ;
#183 = AXIS2_PLACEMENT_3D ( 'NONE', #63, #98, #100 ) ;
#184 = EDGE_CURVE ( 'NONE', #170, #170, #320, .T. ) ;
#185 = SURFACE_STYLE_FILL_AREA ( #25 ) ;
#186 = ORIENTED_EDGE ( 'NONE', *, *, #128, .F. ) ;
#187 = DIRECTION ( 'NONE',  ( 1.000000000000000000, 0.0000000000000000000, 0.0000000000000000000 ) ) ;
#188 = PLANE ( 'NONE',  #311 ) ;
#189 = FACE_OUTER_BOUND ( 'NONE', #353, .T. ) ;
#190 = FILL_AREA_STYLE_COLOUR ( '', #198 ) ;
#191 = AXIS2_PLACEMENT_3D ( 'NONE', #261, #322, #10 ) ;
#192 = ORIENTED_EDGE ( 'NONE', *, *, #73, .T. ) ;
#193 = MANIFOLD_SOLID_BREP ( 'Révolution1', #317 ) ;
#194 = AXIS2_PLACEMENT_3D ( 'NONE', #49, #220, #159 ) ;
#195 = SURFACE_SIDE_STYLE ('',( #281 ) ) ;
#196 = SHAPE_DEFINITION_REPRESENTATION ( #83, #50 ) ;
#197 = SURFACE_STYLE_USAGE ( .BOTH. , #195 ) ;
#198 = COLOUR_RGB ( '',0.6470588235294118000, 0.6196078431372549200, 0.5882352941176470800 ) ;
#199 = DIRECTION ( 'NONE',  ( 0.0000000000000000000, 0.0000000000000000000, 1.000000000000000000 ) ) ;
#200 = DIRECTION ( 'NONE',  ( -0.0000000000000000000, 0.0000000000000000000, -1.000000000000000000 ) ) ;
#201 = CYLINDRICAL_SURFACE ( 'NONE', #99, 136.1500000000000100 ) ;
#202 = EDGE_LOOP ( 'NONE', ( #222 ) ) ;
#203 = ADVANCED_FACE ( 'NONE', ( #360, #243 ), #5, .T. ) ;
#204 = PLANE ( 'NONE',  #150 ) ;
#205 = STYLED_ITEM ( 'NONE', ( #131 ), #193 ) ;
#206 = VERTEX_POINT ( 'NONE', #23 ) ;
#207 = FACE_BOUND ( 'NONE', #119, .T. ) ;
#208 = EDGE_CURVE ( 'NONE', #232, #232, #371, .T. ) ;
#209 = DIRECTION ( 'NONE',  ( 0.0000000000000000000, 0.0000000000000000000, 1.000000000000000000 ) ) ;
#210 = AXIS2_PLACEMENT_3D ( 'NONE', #246, #216, #111 ) ;
#211 = CYLINDRICAL_SURFACE ( 'NONE', #62, 144.9999999999999700 ) ;
#212 = EDGE_LOOP ( 'NONE', ( #141 ) ) ;
#213 = EDGE_LOOP ( 'NONE', ( #175 ) ) ;
#214 = CARTESIAN_POINT ( 'NONE',  ( 0.0000000000000000000, 0.0000000000000000000, 0.7500000000000011100 ) ) ;
#215 = AXIS2_PLACEMENT_3D ( 'NONE', #247, #138, #249 ) ;
#216 = DIRECTION ( 'NONE',  ( 0.0000000000000000000, 0.0000000000000000000, 1.000000000000000000 ) ) ;
#217 = CYLINDRICAL_SURFACE ( 'NONE', #231, 142.5000000000000000 ) ;
#218 = DIRECTION ( 'NONE',  ( 1.000000000000000000, 0.0000000000000000000, 0.0000000000000000000 ) ) ;
#219 = AXIS2_PLACEMENT_3D ( 'NONE', #39, #65, #295 ) ;
#220 = DIRECTION ( 'NONE',  ( 0.0000000000000000000, 0.0000000000000000000, 1.000000000000000000 ) ) ;
#221 = FACE_OUTER_BOUND ( 'NONE', #122, .T. ) ;
#222 = ORIENTED_EDGE ( 'NONE', *, *, #372, .T. ) ;
#223 = AXIS2_PLACEMENT_3D ( 'NONE', #358, #260, #356 ) ;
#224 = DIRECTION ( 'NONE',  ( 0.0000000000000000000, 0.0000000000000000000, 1.000000000000000000 ) ) ;
#225 =( NAMED_UNIT ( * ) SI_UNIT ( $, .STERADIAN. ) SOLID_ANGLE_UNIT ( ) );
#226 = VERTEX_POINT ( 'NONE', #272 ) ;
#227 = DIRECTION ( 'NONE',  ( 1.000000000000000000, 0.0000000000000000000, 0.0000000000000000000 ) ) ;
#228 = AXIS2_PLACEMENT_3D ( 'NONE', #301, #302, #126 ) ;
#229 = EDGE_CURVE ( 'NONE', #107, #107, #375, .T. ) ;
#230 = ORIENTED_EDGE ( 'NONE', *, *, #208, .T. ) ;
#231 = AXIS2_PLACEMENT_3D ( 'NONE', #56, #4, #101 ) ;
#232 = VERTEX_POINT ( 'NONE', #140 ) ;
#233 = ORIENTED_EDGE ( 'NONE', *, *, #241, .T. ) ;
#234 = UNCERTAINTY_MEASURE_WITH_UNIT (LENGTH_MEASURE( 1.000000000000000100E-005 ), #112, 'distance_accuracy_value', 'NONE');
#235 = FACE_OUTER_BOUND ( 'NONE', #309, .T. ) ;
#236 = EDGE_LOOP ( 'NONE', ( #29 ) ) ;
#237 = CARTESIAN_POINT ( 'NONE',  ( 0.0000000000000000000, 0.0000000000000000000, 0.0000000000000000000 ) ) ;
#238 = AXIS2_PLACEMENT_3D ( 'NONE', #80, #250, #252 ) ;
#239 = DIRECTION ( 'NONE',  ( -1.000000000000000000, 0.0000000000000000000, 0.0000000000000000000 ) ) ;
#240 = CARTESIAN_POINT ( 'NONE',  ( 130.5000000000000000, 0.0000000000000000000, 3.000000000000003100 ) ) ;
#241 = EDGE_CURVE ( 'NONE', #54, #54, #45, .T. ) ;
#242 = DIRECTION ( 'NONE',  ( 0.0000000000000000000, 0.0000000000000000000, 1.000000000000000000 ) ) ;
#243 = FACE_OUTER_BOUND ( 'NONE', #38, .T. ) ;
#244 = EDGE_LOOP ( 'NONE', ( #338 ) ) ;
#245 = CARTESIAN_POINT ( 'NONE',  ( 136.1500000000000100, 0.0000000000000000000, 11.99999999999999600 ) ) ;
#246 = CARTESIAN_POINT ( 'NONE',  ( 0.0000000000000000000, 0.0000000000000000000, 5.000000000000001800 ) ) ;
#247 = CARTESIAN_POINT ( 'NONE',  ( 0.0000000000000000000, 0.0000000000000000000, 2.877919977996279900E-015 ) ) ;
#248 = ORIENTED_EDGE ( 'NONE', *, *, #241, .F. ) ;
#249 = DIRECTION ( 'NONE',  ( 1.000000000000000000, 0.0000000000000000000, 0.0000000000000000000 ) ) ;
#250 = DIRECTION ( 'NONE',  ( 0.0000000000000000000, 0.0000000000000000000, 1.000000000000000000 ) ) ;
#251 = ADVANCED_FACE ( 'NONE', ( #71, #127 ), #273, .T. ) ;
#252 = DIRECTION ( 'NONE',  ( 1.000000000000000000, 0.0000000000000000000, 0.0000000000000000000 ) ) ;
#253 = PRODUCT_CONTEXT ( 'NONE', #168, 'mechanical' ) ;
#254 = DIRECTION ( 'NONE',  ( -1.000000000000000000, 0.0000000000000000000, 0.0000000000000000000 ) ) ;
#255 = ADVANCED_FACE ( 'NONE', ( #297, #171 ), #3, .T. ) ;
#256 =( NAMED_UNIT ( * ) PLANE_ANGLE_UNIT ( ) SI_UNIT ( $, .RADIAN. ) );
#257 = EDGE_LOOP ( 'NONE', ( #289 ) ) ;
#258 = CARTESIAN_POINT ( 'NONE',  ( 0.0000000000000000000, 0.0000000000000000000, 7.692582403567252300 ) ) ;
#259 = EDGE_LOOP ( 'NONE', ( #345 ) ) ;
#260 = DIRECTION ( 'NONE',  ( 0.0000000000000000000, 0.0000000000000000000, 1.000000000000000000 ) ) ;
#261 = CARTESIAN_POINT ( 'NONE',  ( 0.0000000000000000000, 0.0000000000000000000, 2.307417596432749500 ) ) ;
#262 = AXIS2_PLACEMENT_3D ( 'NONE', #133, #352, #254 ) ;
#263 = DIRECTION ( 'NONE',  ( 1.000000000000000000, 0.0000000000000000000, -0.0000000000000000000 ) ) ;
#264 = FACE_OUTER_BOUND ( 'NONE', #236, .T. ) ;
#265 = ORIENTED_EDGE ( 'NONE', *, *, #153, .F. ) ;
#266 = DIRECTION ( 'NONE',  ( 0.0000000000000000000, 0.0000000000000000000, 1.000000000000000000 ) ) ;
#267 = DIRECTION ( 'NONE',  ( -0.0000000000000000000, 0.0000000000000000000, -1.000000000000000000 ) ) ;
#268 = DIRECTION ( 'NONE',  ( 1.000000000000000000, 0.0000000000000000000, 0.0000000000000000000 ) ) ;
#269 = FACE_OUTER_BOUND ( 'NONE', #213, .T. ) ;
#270 = CIRCLE ( 'NONE', #223, 142.5000000000000000 ) ;
#271 = AXIS2_PLACEMENT_3D ( 'NONE', #106, #348, #84 ) ;
#272 = CARTESIAN_POINT ( 'NONE',  ( 142.5000000000000000, 0.0000000000000000000, 9.999999999999994700 ) ) ;
#273 = CONICAL_SURFACE ( 'NONE', #262, 144.2500000000000000, 0.7853981633974482800 ) ;
#274 = CARTESIAN_POINT ( 'NONE',  ( 144.9999999999999700, 0.0000000000000000000, 7.692582403567252300 ) ) ;
#275 = CARTESIAN_POINT ( 'NONE',  ( 144.2500000000000000, 0.0000000000000000000, 11.99999999999999600 ) ) ;
#276 = AXIS2_PLACEMENT_3D ( 'NONE', #96, #296, #268 ) ;
#277 = FILL_AREA_STYLE_COLOUR ( '', #37 ) ;
#278 = CIRCLE ( 'NONE', #370, 128.0000000000000000 ) ;
#279 = ORIENTED_EDGE ( 'NONE', *, *, #73, .F. ) ;
#280 = DIRECTION ( 'NONE',  ( 0.0000000000000000000, 0.0000000000000000000, 1.000000000000000000 ) ) ;
#281 = SURFACE_STYLE_FILL_AREA ( #30 ) ;
#282 = TOROIDAL_SURFACE ( 'NONE', #210, 145.0000000000000000, 2.499999999999999600 ) ;
#283 = FACE_BOUND ( 'NONE', #166, .T. ) ;
#284 = EDGE_CURVE ( 'NONE', #70, #70, #147, .T. ) ;
#285 = CARTESIAN_POINT ( 'NONE',  ( 144.2500000000000000, 0.0000000000000000000, 2.035975303582473400E-015 ) ) ;
#286 = CARTESIAN_POINT ( 'NONE',  ( 0.0000000000000000000, 0.0000000000000000000, 0.7500000000000011100 ) ) ;
#287 = FACE_OUTER_BOUND ( 'NONE', #129, .T. ) ;
#288 = CARTESIAN_POINT ( 'NONE',  ( 0.0000000000000000000, 0.0000000000000000000, 3.000000000000003600 ) ) ;
#289 = ORIENTED_EDGE ( 'NONE', *, *, #372, .F. ) ;
#290 = UNCERTAINTY_MEASURE_WITH_UNIT (LENGTH_MEASURE( 1.000000000000000100E-005 ), #163, 'distance_accuracy_value', 'NONE');
#291 = DIRECTION ( 'NONE',  ( 0.0000000000000000000, 0.0000000000000000000, 1.000000000000000000 ) ) ;
#292 = DIRECTION ( 'NONE',  ( 1.000000000000000000, 0.0000000000000000000, 0.0000000000000000000 ) ) ;
#293 = CIRCLE ( 'NONE', #194, 144.2500000000000000 ) ;
#294 = CIRCLE ( 'NONE', #339, 136.1500000000000100 ) ;
#295 = DIRECTION ( 'NONE',  ( 1.000000000000000000, 0.0000000000000000000, 0.0000000000000000000 ) ) ;
#296 = DIRECTION ( 'NONE',  ( 0.0000000000000000000, 0.0000000000000000000, 1.000000000000000000 ) ) ;
#297 = FACE_OUTER_BOUND ( 'NONE', #376, .T. ) ;
#298 = AXIS2_PLACEMENT_3D ( 'NONE', #329, #178, #331 ) ;
#299 = ORIENTED_EDGE ( 'NONE', *, *, #229, .F. ) ;
#300 = DIRECTION ( 'NONE',  ( 1.000000000000000000, 0.0000000000000000000, 0.0000000000000000000 ) ) ;
#301 = CARTESIAN_POINT ( 'NONE',  ( 0.0000000000000000000, 0.0000000000000000000, 11.24999999999999600 ) ) ;
#302 = DIRECTION ( 'NONE',  ( 0.0000000000000000000, 0.0000000000000000000, 1.000000000000000000 ) ) ;
#303 = VERTEX_POINT ( 'NONE', #308 ) ;
#304 = CIRCLE ( 'NONE', #219, 142.5000000000000000 ) ;
#305 = AXIS2_PLACEMENT_3D ( 'NONE', #288, #291, #121 ) ;
#306 = UNCERTAINTY_MEASURE_WITH_UNIT (LENGTH_MEASURE( 1.000000000000000100E-005 ), #164, 'distance_accuracy_value', 'NONE');
#307 = CYLINDRICAL_SURFACE ( 'NONE', #78, 130.5000000000000000 ) ;
#308 = CARTESIAN_POINT ( 'NONE',  ( 128.0000000000000000, 0.0000000000000000000, 3.000000000000003600 ) ) ;
#309 = EDGE_LOOP ( 'NONE', ( #109 ) ) ;
#310 = ORIENTED_EDGE ( 'NONE', *, *, #36, .F. ) ;
#311 = AXIS2_PLACEMENT_3D ( 'NONE', #377, #337, #239 ) ;
#312 = CARTESIAN_POINT ( 'NONE',  ( 0.0000000000000000000, 0.0000000000000000000, 0.0000000000000000000 ) ) ;
#313 = SURFACE_SIDE_STYLE ('',( #185 ) ) ;
#314 = VERTEX_POINT ( 'NONE', #19 ) ;
#315 = ADVANCED_FACE ( 'NONE', ( #161, #86 ), #57, .T. ) ;
#316 = EDGE_LOOP ( 'NONE', ( #52 ) ) ;
#317 = CLOSED_SHELL ( 'NONE', ( #176, #359, #152, #167, #347, #323, #2, #251, #203, #255, #349, #93, #326, #143, #315, #165, #89 ) ) ;
#318 = APPLICATION_PROTOCOL_DEFINITION ( 'draft international standard', 'automotive_design', 1998, #380 ) ;
#319 = DIRECTION ( 'NONE',  ( 1.000000000000000000, 0.0000000000000000000, 0.0000000000000000000 ) ) ;
#320 = CIRCLE ( 'NONE', #215, 130.5000000000000000 ) ;
#321 = ORIENTED_EDGE ( 'NONE', *, *, #153, .T. ) ;
#322 = DIRECTION ( 'NONE',  ( 0.0000000000000000000, 0.0000000000000000000, 1.000000000000000000 ) ) ;
#323 = ADVANCED_FACE ( 'NONE', ( #12, #269 ), #217, .F. ) ;
#324 = VERTEX_POINT ( 'NONE', #373 ) ;
#325 = FACE_OUTER_BOUND ( 'NONE', #202, .T. ) ;
#326 = ADVANCED_FACE ( 'NONE', ( #221, #139 ), #211, .T. ) ;
#327 = EDGE_LOOP ( 'NONE', ( #87 ) ) ;
#328 = AXIS2_PLACEMENT_3D ( 'NONE', #258, #199, #319 ) ;
#329 = CARTESIAN_POINT ( 'NONE',  ( 0.0000000000000000000, 0.0000000000000000000, 1.194030629168666700E-015 ) ) ;
#330 = EDGE_LOOP ( 'NONE', ( #104 ) ) ;
#331 = DIRECTION ( 'NONE',  ( 1.000000000000000000, 0.0000000000000000000, 0.0000000000000000000 ) ) ;
#332 = AXIS2_PLACEMENT_3D ( 'NONE', #136, #114, #187 ) ;
#333 = EDGE_LOOP ( 'NONE', ( #68 ) ) ;
#334 = EDGE_CURVE ( 'NONE', #324, #324, #278, .T. ) ;
#335 =( GEOMETRIC_REPRESENTATION_CONTEXT ( 3 ) GLOBAL_UNCERTAINTY_ASSIGNED_CONTEXT ( ( #290 ) ) GLOBAL_UNIT_ASSIGNED_CONTEXT ( ( #163, #117, #169 ) ) REPRESENTATION_CONTEXT ( 'NONE', 'WORKASPACE' ) );
#336 = CARTESIAN_POINT ( 'NONE',  ( 144.9999999999999700, 0.0000000000000000000, 0.7500000000000011100 ) ) ;
#337 = DIRECTION ( 'NONE',  ( -0.0000000000000000000, 0.0000000000000000000, -1.000000000000000000 ) ) ;
#338 = ORIENTED_EDGE ( 'NONE', *, *, #354, .F. ) ;
#339 = AXIS2_PLACEMENT_3D ( 'NONE', #365, #154, #16 ) ;
#340 = DIRECTION ( 'NONE',  ( 0.0000000000000000000, 0.0000000000000000000, 1.000000000000000000 ) ) ;
#341 = DIRECTION ( 'NONE',  ( 0.0000000000000000000, 0.0000000000000000000, 1.000000000000000000 ) ) ;
#342 = CARTESIAN_POINT ( 'NONE',  ( 144.8148148148147800, 0.0000000000000000000, 2.506868144845140600 ) ) ;
#343 = MECHANICAL_DESIGN_GEOMETRIC_PRESENTATION_REPRESENTATION (  '', ( #205 ), #123 ) ;
#344 = CARTESIAN_POINT ( 'NONE',  ( 0.0000000000000000000, 0.0000000000000000000, 3.184081677783117400E-015 ) ) ;
#345 = ORIENTED_EDGE ( 'NONE', *, *, #184, .F. ) ;
#346 = SURFACE_STYLE_USAGE ( .BOTH. , #313 ) ;
#347 = ADVANCED_FACE ( 'NONE', ( #67, #145 ), #26, .T. ) ;
#348 = DIRECTION ( 'NONE',  ( 0.0000000000000000000, 0.0000000000000000000, 1.000000000000000000 ) ) ;
#349 = ADVANCED_FACE ( 'NONE', ( #58, #8 ), #282, .F. ) ;
#350 = VERTEX_POINT ( 'NONE', #342 ) ;
#351 = FACE_OUTER_BOUND ( 'NONE', #6, .T. ) ;
#352 = DIRECTION ( 'NONE',  ( -0.0000000000000000000, -0.0000000000000000000, -1.000000000000000000 ) ) ;
#353 = EDGE_LOOP ( 'NONE', ( #46 ) ) ;
#354 = EDGE_CURVE ( 'NONE', #206, #206, #102, .T. ) ;
#355 = DIRECTION ( 'NONE',  ( 1.000000000000000000, 0.0000000000000000000, 0.0000000000000000000 ) ) ;
#356 = DIRECTION ( 'NONE',  ( 1.000000000000000000, 0.0000000000000000000, 0.0000000000000000000 ) ) ;
#357 = PRODUCT_DEFINITION ( 'UNKNOWN', '', #105, #13 ) ;
#358 = CARTESIAN_POINT ( 'NONE',  ( 0.0000000000000000000, 0.0000000000000000000, 11.99999999999999800 ) ) ;
#359 = ADVANCED_FACE ( 'NONE', ( #189 ), #188, .T. ) ;
#360 = FACE_OUTER_BOUND ( 'NONE', #333, .T. ) ;
#361 = ORIENTED_EDGE ( 'NONE', *, *, #184, .T. ) ;
#362 = DIRECTION ( 'NONE',  ( -1.000000000000000000, 0.0000000000000000000, 0.0000000000000000000 ) ) ;
#363 = FACE_OUTER_BOUND ( 'NONE', #212, .T. ) ;
#364 =( GEOMETRIC_REPRESENTATION_CONTEXT ( 3 ) GLOBAL_UNCERTAINTY_ASSIGNED_CONTEXT ( ( #234 ) ) GLOBAL_UNIT_ASSIGNED_CONTEXT ( ( #112, #256, #225 ) ) REPRESENTATION_CONTEXT ( 'NONE', 'WORKASPACE' ) );
#365 = CARTESIAN_POINT ( 'NONE',  ( 0.0000000000000000000, 0.0000000000000000000, 11.99999999999999600 ) ) ;
#366 = CONICAL_SURFACE ( 'NONE', #69, 144.9999999999999700, 0.7853981633974302900 ) ;
#367 = ORIENTED_EDGE ( 'NONE', *, *, #284, .T. ) ;
#368 = DIRECTION ( 'NONE',  ( -1.000000000000000000, 0.0000000000000000000, 0.0000000000000000000 ) ) ;
#369 = DIRECTION ( 'NONE',  ( 1.000000000000000000, 0.0000000000000000000, 0.0000000000000000000 ) ) ;
#370 = AXIS2_PLACEMENT_3D ( 'NONE', #344, #340, #218 ) ;
#371 = CIRCLE ( 'NONE', #183, 144.8148148148147800 ) ;
#372 = EDGE_CURVE ( 'NONE', #20, #20, #293, .T. ) ;
#373 = CARTESIAN_POINT ( 'NONE',  ( 128.0000000000000000, 0.0000000000000000000, 3.184081677783117400E-015 ) ) ;
#374 = DIRECTION ( 'NONE',  ( 1.000000000000000000, 0.0000000000000000000, -0.0000000000000000000 ) ) ;
#375 = CIRCLE ( 'NONE', #228, 145.0000000000000000 ) ;
#376 = EDGE_LOOP ( 'NONE', ( #230 ) ) ;
#377 = CARTESIAN_POINT ( 'NONE',  ( 128.0000000000000000, 0.0000000000000000000, 1.592040838891558700E-015 ) ) ;
#378 =( NAMED_UNIT ( * ) SI_UNIT ( $, .STERADIAN. ) SOLID_ANGLE_UNIT ( ) );
#379 = AXIS2_PLACEMENT_3D ( 'NONE', #94, #200, #362 ) ;
#380 = APPLICATION_CONTEXT ( 'automotive_design' ) ;
ENDSEC;
END-ISO-10303-21;
