ISO-10303-21;
HEADER;
FILE_DESCRIPTION (( 'STEP AP214' ),
    '1' );
FILE_NAME ('BP1ISOK320.STEP',
    '2024-05-27T13:08:53',
    ( '' ),
    ( '' ),
    'SwSTEP 2.0',
    'SolidWorks 2017',
    '' );
FILE_SCHEMA (( 'AUTOMOTIVE_DESIGN' ));
ENDSEC;

DATA;
#1 = EDGE_LOOP ( 'NONE', ( #16 ) ) ;
#2 = CARTESIAN_POINT ( 'NONE',  ( 0.0000000000000000000, 0.0000000000000000000, 5.000000000000010700 ) ) ;
#3 = ADVANCED_FACE ( 'NONE', ( #326, #36 ), #7, .T. ) ;
#4 = EDGE_LOOP ( 'NONE', ( #59 ) ) ;
#5 = FILL_AREA_STYLE_COLOUR ( '', #126 ) ;
#6 = CARTESIAN_POINT ( 'NONE',  ( 0.0000000000000000000, 0.0000000000000000000, 0.0000000000000000000 ) ) ;
#7 = PLANE ( 'NONE',  #28 ) ;
#8 = SHAPE_DEFINITION_REPRESENTATION ( #270, #20 ) ;
#9 =( NAMED_UNIT ( * ) PLANE_ANGLE_UNIT ( ) SI_UNIT ( $, .RADIAN. ) );
#10 = DIRECTION ( 'NONE',  ( 1.000000000000000000, 0.0000000000000000000, 0.0000000000000000000 ) ) ;
#11 = DIRECTION ( 'NONE',  ( 1.000000000000000000, 0.0000000000000000000, 0.0000000000000000000 ) ) ;
#12 = SURFACE_STYLE_USAGE ( .BOTH. , #150 ) ;
#13 = CARTESIAN_POINT ( 'NONE',  ( 0.0000000000000000000, 0.0000000000000000000, 0.0000000000000000000 ) ) ;
#14 = DIRECTION ( 'NONE',  ( 0.0000000000000000000, 0.0000000000000000000, 1.000000000000000000 ) ) ;
#15 = CIRCLE ( 'NONE', #355, 184.8199999999999900 ) ;
#16 = ORIENTED_EDGE ( 'NONE', *, *, #140, .F. ) ;
#17 = SURFACE_STYLE_USAGE ( .BOTH. , #188 ) ;
#18 = ORIENTED_EDGE ( 'NONE', *, *, #129, .T. ) ;
#19 = ORIENTED_EDGE ( 'NONE', *, *, #295, .T. ) ;
#20 = ADVANCED_BREP_SHAPE_REPRESENTATION ( 'BP1ISOK320', ( #342, #173 ), #88 ) ;
#21 = STYLED_ITEM ( 'NONE', ( #251 ), #20 ) ;
#22 =( NAMED_UNIT ( * ) SI_UNIT ( $, .STERADIAN. ) SOLID_ANGLE_UNIT ( ) );
#23 = CIRCLE ( 'NONE', #136, 184.0699999999999900 ) ;
#24 = CARTESIAN_POINT ( 'NONE',  ( 0.0000000000000000000, 0.0000000000000000000, 11.69523539268061500 ) ) ;
#25 = CARTESIAN_POINT ( 'NONE',  ( 0.0000000000000000000, 0.0000000000000000000, 3.304764607319400600 ) ) ;
#26 = FACE_BOUND ( 'NONE', #288, .T. ) ;
#27 = AXIS2_PLACEMENT_3D ( 'NONE', #322, #356, #258 ) ;
#28 = AXIS2_PLACEMENT_3D ( 'NONE', #203, #232, #354 ) ;
#29 = DIRECTION ( 'NONE',  ( 0.0000000000000000000, 0.0000000000000000000, 1.000000000000000000 ) ) ;
#30 = PRODUCT ( 'BP1ISOK320', 'BP1ISOK320', '', ( #137 ) ) ;
#31 = FACE_OUTER_BOUND ( 'NONE', #241, .T. ) ;
#32 = DIRECTION ( 'NONE',  ( 0.0000000000000000000, 0.0000000000000000000, 1.000000000000000000 ) ) ;
#33 = CARTESIAN_POINT ( 'NONE',  ( 0.0000000000000000000, 0.0000000000000000000, 5.000000000000011500 ) ) ;
#34 = FACE_OUTER_BOUND ( 'NONE', #169, .T. ) ;
#35 = ORIENTED_EDGE ( 'NONE', *, *, #225, .F. ) ;
#36 = FACE_BOUND ( 'NONE', #373, .T. ) ;
#37 = ADVANCED_FACE ( 'NONE', ( #55, #181 ), #310, .F. ) ;
#38 = CARTESIAN_POINT ( 'NONE',  ( 184.0699999999999900, 0.0000000000000000000, 16.99999999999999300 ) ) ;
#39 = PLANE ( 'NONE',  #158 ) ;
#40 = AXIS2_PLACEMENT_3D ( 'NONE', #101, #298, #123 ) ;
#41 = DIRECTION ( 'NONE',  ( -0.0000000000000000000, 0.0000000000000000000, -1.000000000000000000 ) ) ;
#42 =( LENGTH_UNIT ( ) NAMED_UNIT ( * ) SI_UNIT ( .MILLI., .METRE. ) );
#43 = CIRCLE ( 'NONE', #171, 184.6295238095237900 ) ;
#44 = CARTESIAN_POINT ( 'NONE',  ( 0.0000000000000000000, 0.0000000000000000000, 3.504537721256573100 ) ) ;
#45 = CARTESIAN_POINT ( 'NONE',  ( 175.0000000000000000, 0.0000000000000000000, 16.99999999999999600 ) ) ;
#46 = CARTESIAN_POINT ( 'NONE',  ( 182.5000000000000000, 0.0000000000000000000, 14.99999999999999500 ) ) ;
#47 = PLANE ( 'NONE',  #199 ) ;
#48 = COLOUR_RGB ( '',0.6470588235294118000, 0.6196078431372549200, 0.5882352941176470800 ) ;
#49 = ORIENTED_EDGE ( 'NONE', *, *, #332, .F. ) ;
#50 = ORIENTED_EDGE ( 'NONE', *, *, #250, .T. ) ;
#51 = AXIS2_PLACEMENT_3D ( 'NONE', #157, #235, #69 ) ;
#52 = EDGE_LOOP ( 'NONE', ( #64 ) ) ;
#53 = PRODUCT_DEFINITION ( 'UNKNOWN', '', #72, #246 ) ;
#54 = AXIS2_PLACEMENT_3D ( 'NONE', #214, #167, #278 ) ;
#55 = FACE_OUTER_BOUND ( 'NONE', #347, .T. ) ;
#56 = ORIENTED_EDGE ( 'NONE', *, *, #275, .F. ) ;
#57 = PLANE ( 'NONE',  #337 ) ;
#58 = AXIS2_PLACEMENT_3D ( 'NONE', #13, #327, #100 ) ;
#59 = ORIENTED_EDGE ( 'NONE', *, *, #314, .F. ) ;
#60 = DIRECTION ( 'NONE',  ( 1.000000000000000000, 0.0000000000000000000, -0.0000000000000000000 ) ) ;
#61 = AXIS2_PLACEMENT_3D ( 'NONE', #317, #339, #141 ) ;
#62 = DIRECTION ( 'NONE',  ( 1.000000000000000000, 0.0000000000000000000, 0.0000000000000000000 ) ) ;
#63 = EDGE_LOOP ( 'NONE', ( #261 ) ) ;
#64 = ORIENTED_EDGE ( 'NONE', *, *, #314, .T. ) ;
#65 = ADVANCED_FACE ( 'NONE', ( #338, #117 ), #186, .T. ) ;
#66 = ORIENTED_EDGE ( 'NONE', *, *, #344, .F. ) ;
#67 = EDGE_CURVE ( 'NONE', #85, #85, #293, .T. ) ;
#68 = CARTESIAN_POINT ( 'NONE',  ( 159.0000000000000000, 0.0000000000000000000, 1.053196247266723200E-014 ) ) ;
#69 = DIRECTION ( 'NONE',  ( 1.000000000000000000, 0.0000000000000000000, 0.0000000000000000000 ) ) ;
#70 = CARTESIAN_POINT ( 'NONE',  ( 184.8199999999999900, 0.0000000000000000000, 11.69523539268061500 ) ) ;
#71 = CARTESIAN_POINT ( 'NONE',  ( 154.0000000000000000, 0.0000000000000000000, 5.000000000000011500 ) ) ;
#72 = PRODUCT_DEFINITION_FORMATION_WITH_SPECIFIED_SOURCE ( 'ANY', '', #30, .NOT_KNOWN. ) ;
#73 = CIRCLE ( 'NONE', #27, 184.0699999999999900 ) ;
#74 = EDGE_LOOP ( 'NONE', ( #56 ) ) ;
#75 = AXIS2_PLACEMENT_3D ( 'NONE', #319, #32, #60 ) ;
#76 = EDGE_LOOP ( 'NONE', ( #152 ) ) ;
#77 = ORIENTED_EDGE ( 'NONE', *, *, #154, .T. ) ;
#78 = CARTESIAN_POINT ( 'NONE',  ( 0.0000000000000000000, 0.0000000000000000000, 0.7500000000000074400 ) ) ;
#79 = PRESENTATION_LAYER_ASSIGNMENT (  '', '', ( #21 ) ) ;
#80 = AXIS2_PLACEMENT_3D ( 'NONE', #369, #309, #83 ) ;
#81 = FACE_OUTER_BOUND ( 'NONE', #364, .T. ) ;
#82 = EDGE_LOOP ( 'NONE', ( #147 ) ) ;
#83 = DIRECTION ( 'NONE',  ( -1.000000000000000000, 0.0000000000000000000, 0.0000000000000000000 ) ) ;
#84 = DIRECTION ( 'NONE',  ( 0.0000000000000000000, 0.0000000000000000000, 1.000000000000000000 ) ) ;
#85 = VERTEX_POINT ( 'NONE', #46 ) ;
#86 = EDGE_LOOP ( 'NONE', ( #35 ) ) ;
#87 = CARTESIAN_POINT ( 'NONE',  ( 0.0000000000000000000, 0.0000000000000000000, 0.0000000000000000000 ) ) ;
#88 =( GEOMETRIC_REPRESENTATION_CONTEXT ( 3 ) GLOBAL_UNCERTAINTY_ASSIGNED_CONTEXT ( ( #89 ) ) GLOBAL_UNIT_ASSIGNED_CONTEXT ( ( #329, #9, #204 ) ) REPRESENTATION_CONTEXT ( 'NONE', 'WORKASPACE' ) );
#89 = UNCERTAINTY_MEASURE_WITH_UNIT (LENGTH_MEASURE( 1.000000000000000100E-005 ), #329, 'distance_accuracy_value', 'NONE');
#90 = ORIENTED_EDGE ( 'NONE', *, *, #67, .T. ) ;
#91 = AXIS2_PLACEMENT_3D ( 'NONE', #148, #289, #180 ) ;
#92 = FACE_BOUND ( 'NONE', #274, .T. ) ;
#93 = CARTESIAN_POINT ( 'NONE',  ( 0.0000000000000000000, 0.0000000000000000000, 0.0000000000000000000 ) ) ;
#94 = CARTESIAN_POINT ( 'NONE',  ( 159.0000000000000000, 0.0000000000000000000, 5.000000000000010700 ) ) ;
#95 = MECHANICAL_DESIGN_GEOMETRIC_PRESENTATION_REPRESENTATION (  '', ( #21 ), #134 ) ;
#96 = ADVANCED_FACE ( 'NONE', ( #265 ), #39, .T. ) ;
#97 = DIRECTION ( 'NONE',  ( 0.0000000000000000000, 0.0000000000000000000, 1.000000000000000000 ) ) ;
#98 = TOROIDAL_SURFACE ( 'NONE', #99, 184.6200000000000000, 0.1999999999999896300 ) ;
#99 = AXIS2_PLACEMENT_3D ( 'NONE', #25, #84, #284 ) ;
#100 = DIRECTION ( 'NONE',  ( 1.000000000000000000, 0.0000000000000000000, 0.0000000000000000000 ) ) ;
#101 = CARTESIAN_POINT ( 'NONE',  ( 0.0000000000000000000, 0.0000000000000000000, 7.500000000000007100 ) ) ;
#102 = EDGE_LOOP ( 'NONE', ( #226 ) ) ;
#103 = AXIS2_PLACEMENT_3D ( 'NONE', #78, #131, #307 ) ;
#104 = VERTEX_POINT ( 'NONE', #70 ) ;
#105 = DIRECTION ( 'NONE',  ( 0.0000000000000000000, 0.0000000000000000000, 1.000000000000000000 ) ) ;
#106 = TOROIDAL_SURFACE ( 'NONE', #236, 184.6199999999999800, 0.2000000000000043700 ) ;
#107 = FACE_BOUND ( 'NONE', #52, .T. ) ;
#108 = ORIENTED_EDGE ( 'NONE', *, *, #233, .T. ) ;
#109 = DIRECTION ( 'NONE',  ( 0.0000000000000000000, 0.0000000000000000000, 1.000000000000000000 ) ) ;
#110 = ADVANCED_FACE ( 'NONE', ( #229, #301 ), #47, .T. ) ;
#111 = AXIS2_PLACEMENT_3D ( 'NONE', #33, #262, #231 ) ;
#112 = DIRECTION ( 'NONE',  ( 0.0000000000000000000, 0.0000000000000000000, 1.000000000000000000 ) ) ;
#113 = PRESENTATION_STYLE_ASSIGNMENT (( #17 ) ) ;
#114 = CIRCLE ( 'NONE', #61, 182.5000000000000000 ) ;
#115 = ADVANCED_FACE ( 'NONE', ( #259, #245 ), #159, .T. ) ;
#116 = DIRECTION ( 'NONE',  ( 0.0000000000000000000, 0.0000000000000000000, 1.000000000000000000 ) ) ;
#117 = FACE_BOUND ( 'NONE', #305, .T. ) ;
#118 = ORIENTED_EDGE ( 'NONE', *, *, #295, .F. ) ;
#119 = CARTESIAN_POINT ( 'NONE',  ( 154.0000000000000000, 0.0000000000000000000, 1.114428587224091400E-014 ) ) ;
#120 = DIRECTION ( 'NONE',  ( 0.0000000000000000000, 0.0000000000000000000, 1.000000000000000000 ) ) ;
#121 = APPLICATION_CONTEXT ( 'automotive_design' ) ;
#122 = FACE_OUTER_BOUND ( 'NONE', #139, .T. ) ;
#123 = DIRECTION ( 'NONE',  ( 1.000000000000000000, 0.0000000000000000000, 0.0000000000000000000 ) ) ;
#124 = DIRECTION ( 'NONE',  ( 0.0000000000000000000, 0.0000000000000000000, 1.000000000000000000 ) ) ;
#125 = CARTESIAN_POINT ( 'NONE',  ( 0.0000000000000000000, 0.0000000000000000000, 0.0000000000000000000 ) ) ;
#126 = COLOUR_RGB ( '',0.6470588235294118000, 0.6196078431372549200, 0.5882352941176470800 ) ;
#127 = CARTESIAN_POINT ( 'NONE',  ( 0.0000000000000000000, 0.0000000000000000000, 3.304764607319400600 ) ) ;
#128 = CIRCLE ( 'NONE', #103, 184.8199999999999600 ) ;
#129 = EDGE_CURVE ( 'NONE', #104, #104, #200, .T. ) ;
#130 = EDGE_LOOP ( 'NONE', ( #19 ) ) ;
#131 = DIRECTION ( 'NONE',  ( 0.0000000000000000000, 0.0000000000000000000, 1.000000000000000000 ) ) ;
#132 = ORIENTED_EDGE ( 'NONE', *, *, #225, .T. ) ;
#133 = CARTESIAN_POINT ( 'NONE',  ( 0.0000000000000000000, 0.0000000000000000000, 16.99999999999999600 ) ) ;
#134 =( GEOMETRIC_REPRESENTATION_CONTEXT ( 3 ) GLOBAL_UNCERTAINTY_ASSIGNED_CONTEXT ( ( #360 ) ) GLOBAL_UNIT_ASSIGNED_CONTEXT ( ( #42, #268, #22 ) ) REPRESENTATION_CONTEXT ( 'NONE', 'WORKASPACE' ) );
#135 = DIRECTION ( 'NONE',  ( 1.000000000000000000, 0.0000000000000000000, 0.0000000000000000000 ) ) ;
#136 = AXIS2_PLACEMENT_3D ( 'NONE', #174, #112, #197 ) ;
#137 = PRODUCT_CONTEXT ( 'NONE', #121, 'mechanical' ) ;
#138 = CYLINDRICAL_SURFACE ( 'NONE', #194, 175.0000000000000000 ) ;
#139 = EDGE_LOOP ( 'NONE', ( #260 ) ) ;
#140 = EDGE_CURVE ( 'NONE', #376, #376, #128, .T. ) ;
#141 = DIRECTION ( 'NONE',  ( 1.000000000000000000, 0.0000000000000000000, 0.0000000000000000000 ) ) ;
#142 = FACE_OUTER_BOUND ( 'NONE', #217, .T. ) ;
#143 = DIRECTION ( 'NONE',  ( 0.0000000000000000000, 0.0000000000000000000, 1.000000000000000000 ) ) ;
#144 = CARTESIAN_POINT ( 'NONE',  ( 0.0000000000000000000, 0.0000000000000000000, 1.053196247266723200E-014 ) ) ;
#145 = VERTEX_POINT ( 'NONE', #321 ) ;
#146 = CIRCLE ( 'NONE', #247, 175.0000000000000000 ) ;
#147 = ORIENTED_EDGE ( 'NONE', *, *, #332, .T. ) ;
#148 = CARTESIAN_POINT ( 'NONE',  ( 0.0000000000000000000, 0.0000000000000000000, 1.114428587224091400E-014 ) ) ;
#149 = CARTESIAN_POINT ( 'NONE',  ( 159.0000000000000000, 0.0000000000000000000, 5.000000000000011500 ) ) ;
#150 = SURFACE_SIDE_STYLE ('',( #210 ) ) ;
#151 = TOROIDAL_SURFACE ( 'NONE', #40, 184.8199999999999900, 3.999999999999998200 ) ;
#152 = ORIENTED_EDGE ( 'NONE', *, *, #344, .T. ) ;
#153 = APPLICATION_PROTOCOL_DEFINITION ( 'draft international standard', 'automotive_design', 1998, #121 ) ;
#154 = EDGE_CURVE ( 'NONE', #238, #238, #43, .T. ) ;
#155 = FILL_AREA_STYLE_COLOUR ( '', #48 ) ;
#156 = DIRECTION ( 'NONE',  ( 1.000000000000000000, 0.0000000000000000000, 0.0000000000000000000 ) ) ;
#157 = CARTESIAN_POINT ( 'NONE',  ( 0.0000000000000000000, 0.0000000000000000000, 14.99999999999999500 ) ) ;
#158 = AXIS2_PLACEMENT_3D ( 'NONE', #234, #41, #267 ) ;
#159 = CYLINDRICAL_SURFACE ( 'NONE', #218, 184.8199999999999900 ) ;
#160 =( NAMED_UNIT ( * ) SI_UNIT ( $, .STERADIAN. ) SOLID_ANGLE_UNIT ( ) );
#161 = EDGE_LOOP ( 'NONE', ( #302 ) ) ;
#162 = CARTESIAN_POINT ( 'NONE',  ( 184.6295238095237900, 0.0000000000000000000, 11.49546227874343900 ) ) ;
#163 = EDGE_CURVE ( 'NONE', #216, #216, #146, .T. ) ;
#164 = FACE_OUTER_BOUND ( 'NONE', #277, .T. ) ;
#165 = DIRECTION ( 'NONE',  ( 0.0000000000000000000, 0.0000000000000000000, 1.000000000000000000 ) ) ;
#166 = AXIS2_PLACEMENT_3D ( 'NONE', #93, #120, #10 ) ;
#167 = DIRECTION ( 'NONE',  ( 0.0000000000000000000, 0.0000000000000000000, 1.000000000000000000 ) ) ;
#168 = CYLINDRICAL_SURFACE ( 'NONE', #166, 184.8199999999999900 ) ;
#169 = EDGE_LOOP ( 'NONE', ( #50 ) ) ;
#170 = APPLICATION_CONTEXT ( 'automotive_design' ) ;
#171 = AXIS2_PLACEMENT_3D ( 'NONE', #243, #105, #135 ) ;
#172 = CARTESIAN_POINT ( 'NONE',  ( 0.0000000000000000000, 0.0000000000000000000, 0.0000000000000000000 ) ) ;
#173 = AXIS2_PLACEMENT_3D ( 'NONE', #125, #213, #219 ) ;
#174 = CARTESIAN_POINT ( 'NONE',  ( 0.0000000000000000000, 0.0000000000000000000, 7.461772947204819700E-015 ) ) ;
#175 = ADVANCED_FACE ( 'NONE', ( #92, #255 ), #178, .T. ) ;
#176 = ADVANCED_FACE ( 'NONE', ( #164, #221 ), #106, .T. ) ;
#177 = CIRCLE ( 'NONE', #215, 184.6295238095238200 ) ;
#178 = CONICAL_SURFACE ( 'NONE', #54, 184.8199999999999600, 0.7853981633974302900 ) ;
#179 = PLANE ( 'NONE',  #75 ) ;
#180 = DIRECTION ( 'NONE',  ( 1.000000000000000000, 0.0000000000000000000, 0.0000000000000000000 ) ) ;
#181 = FACE_OUTER_BOUND ( 'NONE', #193, .T. ) ;
#182 = ORIENTED_EDGE ( 'NONE', *, *, #154, .F. ) ;
#183 = DIRECTION ( 'NONE',  ( -1.000000000000000000, 0.0000000000000000000, 0.0000000000000000000 ) ) ;
#184 = DIRECTION ( 'NONE',  ( -1.000000000000000000, 0.0000000000000000000, 0.0000000000000000000 ) ) ;
#185 = FACE_OUTER_BOUND ( 'NONE', #82, .T. ) ;
#186 = CONICAL_SURFACE ( 'NONE', #306, 184.0699999999999900, 0.7853981633974506100 ) ;
#187 = CARTESIAN_POINT ( 'NONE',  ( 175.0000000000000000, 0.0000000000000000000, 14.99999999999999600 ) ) ;
#188 = SURFACE_SIDE_STYLE ('',( #224 ) ) ;
#189 =( NAMED_UNIT ( * ) PLANE_ANGLE_UNIT ( ) SI_UNIT ( $, .RADIAN. ) );
#190 = FACE_OUTER_BOUND ( 'NONE', #86, .T. ) ;
#191 = EDGE_LOOP ( 'NONE', ( #90 ) ) ;
#192 = CLOSED_SHELL ( 'NONE', ( #380, #96, #257, #227, #110, #37, #3, #65, #115, #176, #348, #206, #324, #175, #202, #279, #296 ) ) ;
#193 = EDGE_LOOP ( 'NONE', ( #198 ) ) ;
#194 = AXIS2_PLACEMENT_3D ( 'NONE', #172, #253, #285 ) ;
#195 = FACE_OUTER_BOUND ( 'NONE', #378, .T. ) ;
#196 = ORIENTED_EDGE ( 'NONE', *, *, #223, .F. ) ;
#197 = DIRECTION ( 'NONE',  ( 1.000000000000000000, 0.0000000000000000000, 0.0000000000000000000 ) ) ;
#198 = ORIENTED_EDGE ( 'NONE', *, *, #67, .F. ) ;
#199 = AXIS2_PLACEMENT_3D ( 'NONE', #187, #14, #271 ) ;
#200 = CIRCLE ( 'NONE', #346, 184.8199999999999900 ) ;
#201 = ORIENTED_EDGE ( 'NONE', *, *, #223, .T. ) ;
#202 = ADVANCED_FACE ( 'NONE', ( #26, #190 ), #249, .T. ) ;
#203 = CARTESIAN_POINT ( 'NONE',  ( 182.5000000000000000, 0.0000000000000000000, 16.99999999999999300 ) ) ;
#204 =( NAMED_UNIT ( * ) SI_UNIT ( $, .STERADIAN. ) SOLID_ANGLE_UNIT ( ) );
#205 = EDGE_LOOP ( 'NONE', ( #66 ) ) ;
#206 = ADVANCED_FACE ( 'NONE', ( #31, #320 ), #98, .T. ) ;
#207 = CARTESIAN_POINT ( 'NONE',  ( 0.0000000000000000000, 0.0000000000000000000, 16.99999999999999300 ) ) ;
#208 =( LENGTH_UNIT ( ) NAMED_UNIT ( * ) SI_UNIT ( .MILLI., .METRE. ) );
#209 = CARTESIAN_POINT ( 'NONE',  ( 184.8199999999999900, 0.0000000000000000000, 16.24999999999999600 ) ) ;
#210 = SURFACE_STYLE_FILL_AREA ( #358 ) ;
#211 = FILL_AREA_STYLE ('',( #5 ) ) ;
#212 = FACE_OUTER_BOUND ( 'NONE', #161, .T. ) ;
#213 = DIRECTION ( 'NONE',  ( 0.0000000000000000000, 0.0000000000000000000, 1.000000000000000000 ) ) ;
#214 = CARTESIAN_POINT ( 'NONE',  ( 0.0000000000000000000, 0.0000000000000000000, 0.7500000000000074400 ) ) ;
#215 = AXIS2_PLACEMENT_3D ( 'NONE', #44, #240, #331 ) ;
#216 = VERTEX_POINT ( 'NONE', #45 ) ;
#217 = EDGE_LOOP ( 'NONE', ( #316 ) ) ;
#218 = AXIS2_PLACEMENT_3D ( 'NONE', #359, #124, #328 ) ;
#219 = DIRECTION ( 'NONE',  ( 1.000000000000000000, 0.0000000000000000000, 0.0000000000000000000 ) ) ;
#220 = VERTEX_POINT ( 'NONE', #119 ) ;
#221 = FACE_OUTER_BOUND ( 'NONE', #242, .T. ) ;
#222 = ORIENTED_EDGE ( 'NONE', *, *, #275, .T. ) ;
#223 = EDGE_CURVE ( 'NONE', #228, #228, #114, .T. ) ;
#224 = SURFACE_STYLE_FILL_AREA ( #211 ) ;
#225 = EDGE_CURVE ( 'NONE', #281, #281, #23, .T. ) ;
#226 = ORIENTED_EDGE ( 'NONE', *, *, #140, .T. ) ;
#227 = ADVANCED_FACE ( 'NONE', ( #239, #81 ), #138, .T. ) ;
#228 = VERTEX_POINT ( 'NONE', #363 ) ;
#229 = FACE_OUTER_BOUND ( 'NONE', #191, .T. ) ;
#230 = ORIENTED_EDGE ( 'NONE', *, *, #129, .F. ) ;
#231 = DIRECTION ( 'NONE',  ( 1.000000000000000000, 0.0000000000000000000, 0.0000000000000000000 ) ) ;
#232 = DIRECTION ( 'NONE',  ( 0.0000000000000000000, 0.0000000000000000000, 1.000000000000000000 ) ) ;
#233 = EDGE_CURVE ( 'NONE', #367, #367, #371, .T. ) ;
#234 = CARTESIAN_POINT ( 'NONE',  ( 154.0000000000000000, 0.0000000000000000000, 5.572142936120457100E-015 ) ) ;
#235 = DIRECTION ( 'NONE',  ( 0.0000000000000000000, 0.0000000000000000000, 1.000000000000000000 ) ) ;
#236 = AXIS2_PLACEMENT_3D ( 'NONE', #24, #313, #340 ) ;
#237 = DIRECTION ( 'NONE',  ( 1.000000000000000000, 0.0000000000000000000, 0.0000000000000000000 ) ) ;
#238 = VERTEX_POINT ( 'NONE', #162 ) ;
#239 = FACE_OUTER_BOUND ( 'NONE', #311, .T. ) ;
#240 = DIRECTION ( 'NONE',  ( 0.0000000000000000000, 0.0000000000000000000, 1.000000000000000000 ) ) ;
#241 = EDGE_LOOP ( 'NONE', ( #297 ) ) ;
#242 = EDGE_LOOP ( 'NONE', ( #230 ) ) ;
#243 = CARTESIAN_POINT ( 'NONE',  ( 0.0000000000000000000, 0.0000000000000000000, 11.49546227874343900 ) ) ;
#244 = STYLED_ITEM ( 'NONE', ( #113 ), #342 ) ;
#245 = FACE_OUTER_BOUND ( 'NONE', #205, .T. ) ;
#246 = PRODUCT_DEFINITION_CONTEXT ( 'detailed design', #170, 'design' ) ;
#247 = AXIS2_PLACEMENT_3D ( 'NONE', #133, #375, #248 ) ;
#248 = DIRECTION ( 'NONE',  ( 1.000000000000000000, 0.0000000000000000000, 0.0000000000000000000 ) ) ;
#249 = PLANE ( 'NONE',  #80 ) ;
#250 = EDGE_CURVE ( 'NONE', #287, #287, #351, .T. ) ;
#251 = PRESENTATION_STYLE_ASSIGNMENT (( #12 ) ) ;
#252 = ORIENTED_EDGE ( 'NONE', *, *, #266, .T. ) ;
#253 = DIRECTION ( 'NONE',  ( 0.0000000000000000000, 0.0000000000000000000, 1.000000000000000000 ) ) ;
#254 = CIRCLE ( 'NONE', #280, 184.8199999999999900 ) ;
#255 = FACE_OUTER_BOUND ( 'NONE', #1, .T. ) ;
#256 = DIRECTION ( 'NONE',  ( 1.000000000000000000, 0.0000000000000000000, 0.0000000000000000000 ) ) ;
#257 = ADVANCED_FACE ( 'NONE', ( #212 ), #179, .T. ) ;
#258 = DIRECTION ( 'NONE',  ( 1.000000000000000000, 0.0000000000000000000, 0.0000000000000000000 ) ) ;
#259 = FACE_OUTER_BOUND ( 'NONE', #283, .T. ) ;
#260 = ORIENTED_EDGE ( 'NONE', *, *, #250, .F. ) ;
#261 = ORIENTED_EDGE ( 'NONE', *, *, #266, .F. ) ;
#262 = DIRECTION ( 'NONE',  ( 0.0000000000000000000, 0.0000000000000000000, 1.000000000000000000 ) ) ;
#263 = CARTESIAN_POINT ( 'NONE',  ( 184.8199999999999900, 0.0000000000000000000, 3.304764607319400600 ) ) ;
#264 = FACE_OUTER_BOUND ( 'NONE', #102, .T. ) ;
#265 = FACE_OUTER_BOUND ( 'NONE', #74, .T. ) ;
#266 = EDGE_CURVE ( 'NONE', #370, #370, #362, .T. ) ;
#267 = DIRECTION ( 'NONE',  ( -1.000000000000000000, 0.0000000000000000000, 0.0000000000000000000 ) ) ;
#268 =( NAMED_UNIT ( * ) PLANE_ANGLE_UNIT ( ) SI_UNIT ( $, .RADIAN. ) );
#269 = PRESENTATION_LAYER_ASSIGNMENT (  '', '', ( #244 ) ) ;
#270 = PRODUCT_DEFINITION_SHAPE ( 'NONE', 'NONE',  #53 ) ;
#271 = DIRECTION ( 'NONE',  ( 1.000000000000000000, 0.0000000000000000000, -0.0000000000000000000 ) ) ;
#272 = AXIS2_PLACEMENT_3D ( 'NONE', #144, #29, #256 ) ;
#273 = CARTESIAN_POINT ( 'NONE',  ( 0.0000000000000000000, 0.0000000000000000000, 16.24999999999999600 ) ) ;
#274 = EDGE_LOOP ( 'NONE', ( #132 ) ) ;
#275 = EDGE_CURVE ( 'NONE', #220, #220, #282, .T. ) ;
#276 = VERTEX_POINT ( 'NONE', #263 ) ;
#277 = EDGE_LOOP ( 'NONE', ( #77 ) ) ;
#278 = DIRECTION ( 'NONE',  ( 1.000000000000000000, 0.0000000000000000000, 0.0000000000000000000 ) ) ;
#279 = ADVANCED_FACE ( 'NONE', ( #34, #334 ), #315, .F. ) ;
#280 = AXIS2_PLACEMENT_3D ( 'NONE', #127, #333, #237 ) ;
#281 = VERTEX_POINT ( 'NONE', #300 ) ;
#282 = CIRCLE ( 'NONE', #91, 154.0000000000000000 ) ;
#283 = EDGE_LOOP ( 'NONE', ( #18 ) ) ;
#284 = DIRECTION ( 'NONE',  ( 1.000000000000000000, 0.0000000000000000000, 0.0000000000000000000 ) ) ;
#285 = DIRECTION ( 'NONE',  ( 1.000000000000000000, 0.0000000000000000000, 0.0000000000000000000 ) ) ;
#286 = AXIS2_PLACEMENT_3D ( 'NONE', #6, #291, #11 ) ;
#287 = VERTEX_POINT ( 'NONE', #94 ) ;
#288 = EDGE_LOOP ( 'NONE', ( #108 ) ) ;
#289 = DIRECTION ( 'NONE',  ( 0.0000000000000000000, 0.0000000000000000000, 1.000000000000000000 ) ) ;
#290 = DIRECTION ( 'NONE',  ( 1.000000000000000000, 0.0000000000000000000, 0.0000000000000000000 ) ) ;
#291 = DIRECTION ( 'NONE',  ( 0.0000000000000000000, 0.0000000000000000000, 1.000000000000000000 ) ) ;
#292 = VERTEX_POINT ( 'NONE', #38 ) ;
#293 = CIRCLE ( 'NONE', #51, 182.5000000000000000 ) ;
#294 = CARTESIAN_POINT ( 'NONE',  ( 0.0000000000000000000, 0.0000000000000000000, 14.99999999999999600 ) ) ;
#295 = EDGE_CURVE ( 'NONE', #292, #292, #73, .T. ) ;
#296 = ADVANCED_FACE ( 'NONE', ( #107, #122 ), #57, .T. ) ;
#297 = ORIENTED_EDGE ( 'NONE', *, *, #374, .T. ) ;
#298 = DIRECTION ( 'NONE',  ( 0.0000000000000000000, 0.0000000000000000000, 1.000000000000000000 ) ) ;
#299 = CIRCLE ( 'NONE', #111, 154.0000000000000000 ) ;
#300 = CARTESIAN_POINT ( 'NONE',  ( 184.0699999999999900, 0.0000000000000000000, 7.461772947204819700E-015 ) ) ;
#301 = FACE_BOUND ( 'NONE', #63, .T. ) ;
#302 = ORIENTED_EDGE ( 'NONE', *, *, #163, .T. ) ;
#303 = CARTESIAN_POINT ( 'NONE',  ( 184.8199999999999600, 0.0000000000000000000, 0.7500000000000074400 ) ) ;
#304 = CYLINDRICAL_SURFACE ( 'NONE', #58, 154.0000000000000000 ) ;
#305 = EDGE_LOOP ( 'NONE', ( #118 ) ) ;
#306 = AXIS2_PLACEMENT_3D ( 'NONE', #207, #357, #184 ) ;
#307 = DIRECTION ( 'NONE',  ( 1.000000000000000000, 0.0000000000000000000, 0.0000000000000000000 ) ) ;
#308 = VERTEX_POINT ( 'NONE', #71 ) ;
#309 = DIRECTION ( 'NONE',  ( -0.0000000000000000000, 0.0000000000000000000, -1.000000000000000000 ) ) ;
#310 = CYLINDRICAL_SURFACE ( 'NONE', #286, 182.5000000000000000 ) ;
#311 = EDGE_LOOP ( 'NONE', ( #252 ) ) ;
#312 = AXIS2_PLACEMENT_3D ( 'NONE', #2, #109, #290 ) ;
#313 = DIRECTION ( 'NONE',  ( 0.0000000000000000000, 0.0000000000000000000, 1.000000000000000000 ) ) ;
#314 = EDGE_CURVE ( 'NONE', #308, #308, #299, .T. ) ;
#315 = CYLINDRICAL_SURFACE ( 'NONE', #318, 159.0000000000000000 ) ;
#316 = ORIENTED_EDGE ( 'NONE', *, *, #374, .F. ) ;
#317 = CARTESIAN_POINT ( 'NONE',  ( 0.0000000000000000000, 0.0000000000000000000, 16.99999999999999600 ) ) ;
#318 = AXIS2_PLACEMENT_3D ( 'NONE', #87, #116, #62 ) ;
#319 = CARTESIAN_POINT ( 'NONE',  ( 0.0000000000000000000, 0.0000000000000000000, 16.99999999999999600 ) ) ;
#320 = FACE_OUTER_BOUND ( 'NONE', #335, .T. ) ;
#321 = CARTESIAN_POINT ( 'NONE',  ( 184.6295238095238200, 0.0000000000000000000, 3.504537721256573100 ) ) ;
#322 = CARTESIAN_POINT ( 'NONE',  ( 0.0000000000000000000, 0.0000000000000000000, 16.99999999999999300 ) ) ;
#323 = CARTESIAN_POINT ( 'NONE',  ( 175.0000000000000000, 0.0000000000000000000, 14.99999999999999600 ) ) ;
#324 = ADVANCED_FACE ( 'NONE', ( #264, #142 ), #168, .T. ) ;
#325 = VERTEX_POINT ( 'NONE', #209 ) ;
#326 = FACE_OUTER_BOUND ( 'NONE', #130, .T. ) ;
#327 = DIRECTION ( 'NONE',  ( 0.0000000000000000000, 0.0000000000000000000, 1.000000000000000000 ) ) ;
#328 = DIRECTION ( 'NONE',  ( 1.000000000000000000, 0.0000000000000000000, 0.0000000000000000000 ) ) ;
#329 =( LENGTH_UNIT ( ) NAMED_UNIT ( * ) SI_UNIT ( .MILLI., .METRE. ) );
#330 = UNCERTAINTY_MEASURE_WITH_UNIT (LENGTH_MEASURE( 1.000000000000000100E-005 ), #208, 'distance_accuracy_value', 'NONE');
#331 = DIRECTION ( 'NONE',  ( 1.000000000000000000, 0.0000000000000000000, 0.0000000000000000000 ) ) ;
#332 = EDGE_CURVE ( 'NONE', #145, #145, #177, .T. ) ;
#333 = DIRECTION ( 'NONE',  ( 0.0000000000000000000, 0.0000000000000000000, 1.000000000000000000 ) ) ;
#334 = FACE_OUTER_BOUND ( 'NONE', #343, .T. ) ;
#335 = EDGE_LOOP ( 'NONE', ( #49 ) ) ;
#336 = CARTESIAN_POINT ( 'NONE',  ( 0.0000000000000000000, 0.0000000000000000000, 11.69523539268061500 ) ) ;
#337 = AXIS2_PLACEMENT_3D ( 'NONE', #149, #353, #183 ) ;
#338 = FACE_OUTER_BOUND ( 'NONE', #76, .T. ) ;
#339 = DIRECTION ( 'NONE',  ( 0.0000000000000000000, 0.0000000000000000000, 1.000000000000000000 ) ) ;
#340 = DIRECTION ( 'NONE',  ( 1.000000000000000000, 0.0000000000000000000, 0.0000000000000000000 ) ) ;
#341 = PRODUCT_RELATED_PRODUCT_CATEGORY ( 'part', '', ( #30 ) ) ;
#342 = MANIFOLD_SOLID_BREP ( 'Révolution1', #192 ) ;
#343 = EDGE_LOOP ( 'NONE', ( #368 ) ) ;
#344 = EDGE_CURVE ( 'NONE', #325, #325, #15, .T. ) ;
#345 = APPLICATION_PROTOCOL_DEFINITION ( 'draft international standard', 'automotive_design', 1998, #170 ) ;
#346 = AXIS2_PLACEMENT_3D ( 'NONE', #336, #165, #366 ) ;
#347 = EDGE_LOOP ( 'NONE', ( #201 ) ) ;
#348 = ADVANCED_FACE ( 'NONE', ( #185, #361 ), #151, .F. ) ;
#349 = DIRECTION ( 'NONE',  ( 1.000000000000000000, 0.0000000000000000000, 0.0000000000000000000 ) ) ;
#350 = FACE_OUTER_BOUND ( 'NONE', #4, .T. ) ;
#351 = CIRCLE ( 'NONE', #312, 159.0000000000000000 ) ;
#352 = EDGE_LOOP ( 'NONE', ( #182 ) ) ;
#353 = DIRECTION ( 'NONE',  ( -0.0000000000000000000, 0.0000000000000000000, -1.000000000000000000 ) ) ;
#354 = DIRECTION ( 'NONE',  ( 1.000000000000000000, 0.0000000000000000000, -0.0000000000000000000 ) ) ;
#355 = AXIS2_PLACEMENT_3D ( 'NONE', #273, #97, #156 ) ;
#356 = DIRECTION ( 'NONE',  ( 0.0000000000000000000, 0.0000000000000000000, 1.000000000000000000 ) ) ;
#357 = DIRECTION ( 'NONE',  ( -0.0000000000000000000, -0.0000000000000000000, -1.000000000000000000 ) ) ;
#358 = FILL_AREA_STYLE ('',( #155 ) ) ;
#359 = CARTESIAN_POINT ( 'NONE',  ( 0.0000000000000000000, 0.0000000000000000000, 0.0000000000000000000 ) ) ;
#360 = UNCERTAINTY_MEASURE_WITH_UNIT (LENGTH_MEASURE( 1.000000000000000100E-005 ), #42, 'distance_accuracy_value', 'NONE');
#361 = FACE_OUTER_BOUND ( 'NONE', #352, .T. ) ;
#362 = CIRCLE ( 'NONE', #372, 175.0000000000000000 ) ;
#363 = CARTESIAN_POINT ( 'NONE',  ( 182.5000000000000000, 0.0000000000000000000, 16.99999999999999600 ) ) ;
#364 = EDGE_LOOP ( 'NONE', ( #377 ) ) ;
#365 =( GEOMETRIC_REPRESENTATION_CONTEXT ( 3 ) GLOBAL_UNCERTAINTY_ASSIGNED_CONTEXT ( ( #330 ) ) GLOBAL_UNIT_ASSIGNED_CONTEXT ( ( #208, #189, #160 ) ) REPRESENTATION_CONTEXT ( 'NONE', 'WORKASPACE' ) );
#366 = DIRECTION ( 'NONE',  ( 1.000000000000000000, 0.0000000000000000000, 0.0000000000000000000 ) ) ;
#367 = VERTEX_POINT ( 'NONE', #68 ) ;
#368 = ORIENTED_EDGE ( 'NONE', *, *, #233, .F. ) ;
#369 = CARTESIAN_POINT ( 'NONE',  ( 184.0699999999999900, 0.0000000000000000000, 8.996867709936025200E-015 ) ) ;
#370 = VERTEX_POINT ( 'NONE', #323 ) ;
#371 = CIRCLE ( 'NONE', #272, 159.0000000000000000 ) ;
#372 = AXIS2_PLACEMENT_3D ( 'NONE', #294, #143, #349 ) ;
#373 = EDGE_LOOP ( 'NONE', ( #196 ) ) ;
#374 = EDGE_CURVE ( 'NONE', #276, #276, #254, .T. ) ;
#375 = DIRECTION ( 'NONE',  ( 0.0000000000000000000, 0.0000000000000000000, 1.000000000000000000 ) ) ;
#376 = VERTEX_POINT ( 'NONE', #303 ) ;
#377 = ORIENTED_EDGE ( 'NONE', *, *, #163, .F. ) ;
#378 = EDGE_LOOP ( 'NONE', ( #222 ) ) ;
#379 = MECHANICAL_DESIGN_GEOMETRIC_PRESENTATION_REPRESENTATION (  '', ( #244 ), #365 ) ;
#380 = ADVANCED_FACE ( 'NONE', ( #195, #350 ), #304, .T. ) ;
ENDSEC;
END-ISO-10303-21;
