ISO-10303-21;
HEADER;
FILE_DESCRIPTION (( 'STEP AP214' ),
    '1' );
FILE_NAME ('BP1ISOK500.STEP',
    '2024-05-27T13:08:10',
    ( '' ),
    ( '' ),
    'SwSTEP 2.0',
    'SolidWorks 2017',
    '' );
FILE_SCHEMA (( 'AUTOMOTIVE_DESIGN' ));
ENDSEC;

DATA;
#1 = DIRECTION ( 'NONE',  ( 0.0000000000000000000, 0.0000000000000000000, 1.000000000000000000 ) ) ;
#2 =( NAMED_UNIT ( * ) PLANE_ANGLE_UNIT ( ) SI_UNIT ( $, .RADIAN. ) );
#3 = ADVANCED_FACE ( 'NONE', ( #145 ), #194, .T. ) ;
#4 = APPLICATION_PROTOCOL_DEFINITION ( 'draft international standard', 'automotive_design', 1998, #324 ) ;
#5 = CYLINDRICAL_SURFACE ( 'NONE', #50, 265.0000000000000000 ) ;
#6 = DIRECTION ( 'NONE',  ( 1.000000000000000000, 0.0000000000000000000, 0.0000000000000000000 ) ) ;
#7 =( GEOMETRIC_REPRESENTATION_CONTEXT ( 3 ) GLOBAL_UNCERTAINTY_ASSIGNED_CONTEXT ( ( #65 ) ) GLOBAL_UNIT_ASSIGNED_CONTEXT ( ( #56, #255, #190 ) ) REPRESENTATION_CONTEXT ( 'NONE', 'WORKASPACE' ) );
#8 = DIRECTION ( 'NONE',  ( 1.000000000000000000, 0.0000000000000000000, 0.0000000000000000000 ) ) ;
#9 = FACE_BOUND ( 'NONE', #53, .T. ) ;
#10 = DIRECTION ( 'NONE',  ( 1.000000000000000000, 0.0000000000000000000, 0.0000000000000000000 ) ) ;
#11 = EDGE_CURVE ( 'NONE', #83, #83, #32, .T. ) ;
#12 = FACE_OUTER_BOUND ( 'NONE', #146, .T. ) ;
#13 = CARTESIAN_POINT ( 'NONE',  ( 0.0000000000000000000, 0.0000000000000000000, 16.24999999999999600 ) ) ;
#14 = CIRCLE ( 'NONE', #284, 274.8095238095239700 ) ;
#15 = DIRECTION ( 'NONE',  ( 1.000000000000000000, 0.0000000000000000000, 0.0000000000000000000 ) ) ;
#16 = FILL_AREA_STYLE ('',( #85 ) ) ;
#17 = FACE_OUTER_BOUND ( 'NONE', #168, .T. ) ;
#18 = ORIENTED_EDGE ( 'NONE', *, *, #154, .F. ) ;
#19 = PRODUCT_DEFINITION_CONTEXT ( 'detailed design', #324, 'design' ) ;
#20 = FACE_OUTER_BOUND ( 'NONE', #134, .T. ) ;
#21 = EDGE_LOOP ( 'NONE', ( #66 ) ) ;
#22 = EDGE_LOOP ( 'NONE', ( #148 ) ) ;
#23 = CARTESIAN_POINT ( 'NONE',  ( 0.0000000000000000000, 0.0000000000000000000, 11.69523539268059400 ) ) ;
#24 = AXIS2_PLACEMENT_3D ( 'NONE', #206, #361, #6 ) ;
#25 = CARTESIAN_POINT ( 'NONE',  ( 0.0000000000000000000, 0.0000000000000000000, 16.99999999999999600 ) ) ;
#26 = PRODUCT ( 'BP1ISOK500', 'BP1ISOK500', '', ( #294 ) ) ;
#27 = VERTEX_POINT ( 'NONE', #265 ) ;
#28 = EDGE_LOOP ( 'NONE', ( #347 ) ) ;
#29 = CARTESIAN_POINT ( 'NONE',  ( 274.2500000000001100, 0.0000000000000000000, -1.327210968575944400E-014 ) ) ;
#30 = CARTESIAN_POINT ( 'NONE',  ( 265.0000000000000000, 0.0000000000000000000, 14.99999999999999500 ) ) ;
#31 = DIRECTION ( 'NONE',  ( -1.000000000000000000, 0.0000000000000000000, 0.0000000000000000000 ) ) ;
#32 = CIRCLE ( 'NONE', #188, 250.5000000000000000 ) ;
#33 = EDGE_CURVE ( 'NONE', #27, #27, #87, .T. ) ;
#34 = EDGE_LOOP ( 'NONE', ( #59 ) ) ;
#35 = ADVANCED_FACE ( 'NONE', ( #359, #375 ), #5, .T. ) ;
#36 = AXIS2_PLACEMENT_3D ( 'NONE', #344, #374, #287 ) ;
#37 = FACE_BOUND ( 'NONE', #99, .T. ) ;
#38 = DIRECTION ( 'NONE',  ( 0.0000000000000000000, 0.0000000000000000000, 1.000000000000000000 ) ) ;
#39 = ORIENTED_EDGE ( 'NONE', *, *, #54, .F. ) ;
#40 = CARTESIAN_POINT ( 'NONE',  ( 0.0000000000000000000, 0.0000000000000000000, -1.472637775974693000E-014 ) ) ;
#41 = DIRECTION ( 'NONE',  ( 0.0000000000000000000, 0.0000000000000000000, 1.000000000000000000 ) ) ;
#42 = COLOUR_RGB ( '',0.6470588235294118000, 0.6196078431372549200, 0.5882352941176470800 ) ;
#43 = FACE_OUTER_BOUND ( 'NONE', #34, .T. ) ;
#44 = ORIENTED_EDGE ( 'NONE', *, *, #279, .T. ) ;
#45 = CARTESIAN_POINT ( 'NONE',  ( 250.5000000000000000, 0.0000000000000000000, 2.999999999999988500 ) ) ;
#46 = ADVANCED_FACE ( 'NONE', ( #351, #9 ), #266, .T. ) ;
#47 = AXIS2_PLACEMENT_3D ( 'NONE', #29, #289, #229 ) ;
#48 = VERTEX_POINT ( 'NONE', #45 ) ;
#49 = AXIS2_PLACEMENT_3D ( 'NONE', #254, #60, #378 ) ;
#50 = AXIS2_PLACEMENT_3D ( 'NONE', #261, #125, #355 ) ;
#51 = FACE_OUTER_BOUND ( 'NONE', #306, .T. ) ;
#52 = CIRCLE ( 'NONE', #82, 245.0000000000000000 ) ;
#53 = EDGE_LOOP ( 'NONE', ( #129 ) ) ;
#54 = EDGE_CURVE ( 'NONE', #237, #237, #278, .T. ) ;
#55 = DIRECTION ( 'NONE',  ( 0.0000000000000000000, 0.0000000000000000000, 1.000000000000000000 ) ) ;
#56 =( LENGTH_UNIT ( ) NAMED_UNIT ( * ) SI_UNIT ( .MILLI., .METRE. ) );
#57 = PRESENTATION_LAYER_ASSIGNMENT (  '', '', ( #288 ) ) ;
#58 = FACE_OUTER_BOUND ( 'NONE', #341, .T. ) ;
#59 = ORIENTED_EDGE ( 'NONE', *, *, #293, .T. ) ;
#60 = DIRECTION ( 'NONE',  ( 0.0000000000000000000, 0.0000000000000000000, 1.000000000000000000 ) ) ;
#61 = DIRECTION ( 'NONE',  ( 1.000000000000000000, 0.0000000000000000000, 0.0000000000000000000 ) ) ;
#62 = CYLINDRICAL_SURFACE ( 'NONE', #242, 275.0000000000000000 ) ;
#63 = DIRECTION ( 'NONE',  ( 0.0000000000000000000, 0.0000000000000000000, 1.000000000000000000 ) ) ;
#64 = DIRECTION ( 'NONE',  ( -0.0000000000000000000, -0.0000000000000000000, -1.000000000000000000 ) ) ;
#65 = UNCERTAINTY_MEASURE_WITH_UNIT (LENGTH_MEASURE( 1.000000000000000100E-005 ), #56, 'distance_accuracy_value', 'NONE');
#66 = ORIENTED_EDGE ( 'NONE', *, *, #33, .T. ) ;
#67 = AXIS2_PLACEMENT_3D ( 'NONE', #245, #243, #298 ) ;
#68 = EDGE_LOOP ( 'NONE', ( #264 ) ) ;
#69 = DIRECTION ( 'NONE',  ( 0.0000000000000000000, 0.0000000000000000000, 1.000000000000000000 ) ) ;
#70 = CARTESIAN_POINT ( 'NONE',  ( 274.8095238095239700, 0.0000000000000000000, 3.504537721256546100 ) ) ;
#71 = STYLED_ITEM ( 'NONE', ( #362 ), #305 ) ;
#72 = CYLINDRICAL_SURFACE ( 'NONE', #36, 275.0000000000000000 ) ;
#73 = FACE_OUTER_BOUND ( 'NONE', #79, .T. ) ;
#74 = AXIS2_PLACEMENT_3D ( 'NONE', #25, #228, #256 ) ;
#75 = CARTESIAN_POINT ( 'NONE',  ( 274.8095238095239700, 0.0000000000000000000, 11.49546227874346400 ) ) ;
#76 = DIRECTION ( 'NONE',  ( 1.000000000000000000, 0.0000000000000000000, 0.0000000000000000000 ) ) ;
#77 = CARTESIAN_POINT ( 'NONE',  ( 275.0000000000000000, 0.0000000000000000000, 3.304764607319376200 ) ) ;
#78 = EDGE_CURVE ( 'NONE', #312, #312, #157, .T. ) ;
#79 = EDGE_LOOP ( 'NONE', ( #114 ) ) ;
#80 = EDGE_LOOP ( 'NONE', ( #164 ) ) ;
#81 = DIRECTION ( 'NONE',  ( 1.000000000000000000, 0.0000000000000000000, 0.0000000000000000000 ) ) ;
#82 = AXIS2_PLACEMENT_3D ( 'NONE', #220, #368, #15 ) ;
#83 = VERTEX_POINT ( 'NONE', #317 ) ;
#84 = FACE_BOUND ( 'NONE', #22, .T. ) ;
#85 = FILL_AREA_STYLE_COLOUR ( '', #42 ) ;
#86 = UNCERTAINTY_MEASURE_WITH_UNIT (LENGTH_MEASURE( 1.000000000000000100E-005 ), #94, 'distance_accuracy_value', 'NONE');
#87 = CIRCLE ( 'NONE', #95, 265.0000000000000000 ) ;
#88 = ORIENTED_EDGE ( 'NONE', *, *, #225, .T. ) ;
#89 = AXIS2_PLACEMENT_3D ( 'NONE', #172, #195, #97 ) ;
#90 = CARTESIAN_POINT ( 'NONE',  ( 0.0000000000000000000, 0.0000000000000000000, 0.0000000000000000000 ) ) ;
#91 = APPLICATION_PROTOCOL_DEFINITION ( 'draft international standard', 'automotive_design', 1998, #96 ) ;
#92 =( GEOMETRIC_REPRESENTATION_CONTEXT ( 3 ) GLOBAL_UNCERTAINTY_ASSIGNED_CONTEXT ( ( #127 ) ) GLOBAL_UNIT_ASSIGNED_CONTEXT ( ( #260, #2, #322 ) ) REPRESENTATION_CONTEXT ( 'NONE', 'WORKASPACE' ) );
#93 = TOROIDAL_SURFACE ( 'NONE', #350, 274.8000000000001300, 0.1999999999999339000 ) ;
#94 =( LENGTH_UNIT ( ) NAMED_UNIT ( * ) SI_UNIT ( .MILLI., .METRE. ) );
#95 = AXIS2_PLACEMENT_3D ( 'NONE', #236, #176, #61 ) ;
#96 = APPLICATION_CONTEXT ( 'automotive_design' ) ;
#97 = DIRECTION ( 'NONE',  ( -1.000000000000000000, 0.0000000000000000000, 0.0000000000000000000 ) ) ;
#98 = CIRCLE ( 'NONE', #275, 275.0000000000000000 ) ;
#99 = EDGE_LOOP ( 'NONE', ( #349 ) ) ;
#100 = EDGE_LOOP ( 'NONE', ( #108 ) ) ;
#101 = DIRECTION ( 'NONE',  ( 1.000000000000000000, 0.0000000000000000000, 0.0000000000000000000 ) ) ;
#102 = ADVANCED_FACE ( 'NONE', ( #84, #296 ), #200, .T. ) ;
#103 = CARTESIAN_POINT ( 'NONE',  ( 0.0000000000000000000, 0.0000000000000000000, 11.49546227874346400 ) ) ;
#104 = VERTEX_POINT ( 'NONE', #136 ) ;
#105 = AXIS2_PLACEMENT_3D ( 'NONE', #323, #64, #31 ) ;
#106 = DIRECTION ( 'NONE',  ( 1.000000000000000000, 0.0000000000000000000, 0.0000000000000000000 ) ) ;
#107 = ORIENTED_EDGE ( 'NONE', *, *, #269, .T. ) ;
#108 = ORIENTED_EDGE ( 'NONE', *, *, #293, .F. ) ;
#109 = CARTESIAN_POINT ( 'NONE',  ( 275.0000000000000000, 0.0000000000000000000, 16.24999999999999600 ) ) ;
#110 = AXIS2_PLACEMENT_3D ( 'NONE', #299, #240, #267 ) ;
#111 = CARTESIAN_POINT ( 'NONE',  ( 273.0000000000000000, 0.0000000000000000000, 16.99999999999999600 ) ) ;
#112 = VERTEX_POINT ( 'NONE', #308 ) ;
#113 = ADVANCED_FACE ( 'NONE', ( #43, #262 ), #198, .T. ) ;
#114 = ORIENTED_EDGE ( 'NONE', *, *, #158, .F. ) ;
#115 = EDGE_LOOP ( 'NONE', ( #286 ) ) ;
#116 = CARTESIAN_POINT ( 'NONE',  ( 245.0000000000000000, 0.0000000000000000000, -5.572142936120457100E-015 ) ) ;
#117 = VERTEX_POINT ( 'NONE', #367 ) ;
#118 = EDGE_LOOP ( 'NONE', ( #282 ) ) ;
#119 = FILL_AREA_STYLE ('',( #143 ) ) ;
#120 = DIRECTION ( 'NONE',  ( 0.0000000000000000000, 0.0000000000000000000, 1.000000000000000000 ) ) ;
#121 = AXIS2_PLACEMENT_3D ( 'NONE', #173, #63, #263 ) ;
#122 = ADVANCED_FACE ( 'NONE', ( #365, #285 ), #380, .T. ) ;
#123 = CARTESIAN_POINT ( 'NONE',  ( 0.0000000000000000000, 0.0000000000000000000, -1.181784161177195900E-014 ) ) ;
#124 = EDGE_CURVE ( 'NONE', #250, #250, #183, .T. ) ;
#125 = DIRECTION ( 'NONE',  ( 0.0000000000000000000, 0.0000000000000000000, 1.000000000000000000 ) ) ;
#126 = ORIENTED_EDGE ( 'NONE', *, *, #124, .T. ) ;
#127 = UNCERTAINTY_MEASURE_WITH_UNIT (LENGTH_MEASURE( 1.000000000000000100E-005 ), #260, 'distance_accuracy_value', 'NONE');
#128 = CARTESIAN_POINT ( 'NONE',  ( 0.0000000000000000000, 0.0000000000000000000, 0.0000000000000000000 ) ) ;
#129 = ORIENTED_EDGE ( 'NONE', *, *, #33, .F. ) ;
#130 = DIRECTION ( 'NONE',  ( 1.000000000000000000, 0.0000000000000000000, 0.0000000000000000000 ) ) ;
#131 = FACE_OUTER_BOUND ( 'NONE', #151, .T. ) ;
#132 = CARTESIAN_POINT ( 'NONE',  ( 245.0000000000000000, 0.0000000000000000000, -1.114428587224091400E-014 ) ) ;
#133 = CARTESIAN_POINT ( 'NONE',  ( 0.0000000000000000000, 0.0000000000000000000, -1.114428587224091400E-014 ) ) ;
#134 = EDGE_LOOP ( 'NONE', ( #193 ) ) ;
#135 = CARTESIAN_POINT ( 'NONE',  ( 273.0000000000000000, 0.0000000000000000000, 16.99999999999999300 ) ) ;
#136 = CARTESIAN_POINT ( 'NONE',  ( 275.0000000000000000, 0.0000000000000000000, 11.69523539268059400 ) ) ;
#137 = FACE_OUTER_BOUND ( 'NONE', #184, .T. ) ;
#138 = AXIS2_PLACEMENT_3D ( 'NONE', #309, #334, #76 ) ;
#139 = PRODUCT_DEFINITION_SHAPE ( 'NONE', 'NONE',  #283 ) ;
#140 = VERTEX_POINT ( 'NONE', #360 ) ;
#141 = CIRCLE ( 'NONE', #231, 274.2500000000000600 ) ;
#142 = EDGE_CURVE ( 'NONE', #346, #346, #14, .T. ) ;
#143 = FILL_AREA_STYLE_COLOUR ( '', #209 ) ;
#144 = SURFACE_SIDE_STYLE ('',( #364 ) ) ;
#145 = FACE_OUTER_BOUND ( 'NONE', #163, .T. ) ;
#146 = EDGE_LOOP ( 'NONE', ( #272 ) ) ;
#147 = DIRECTION ( 'NONE',  ( 1.000000000000000000, 0.0000000000000000000, 0.0000000000000000000 ) ) ;
#148 = ORIENTED_EDGE ( 'NONE', *, *, #249, .T. ) ;
#149 = DIRECTION ( 'NONE',  ( 1.000000000000000000, 0.0000000000000000000, 0.0000000000000000000 ) ) ;
#150 = CIRCLE ( 'NONE', #251, 273.0000000000000000 ) ;
#151 = EDGE_LOOP ( 'NONE', ( #126 ) ) ;
#152 = ADVANCED_FACE ( 'NONE', ( #313, #137 ), #175, .F. ) ;
#153 = CARTESIAN_POINT ( 'NONE',  ( 0.0000000000000000000, 0.0000000000000000000, 0.7499999999999851200 ) ) ;
#154 = EDGE_CURVE ( 'NONE', #331, #331, #252, .T. ) ;
#155 = AXIS2_PLACEMENT_3D ( 'NONE', #277, #302, #106 ) ;
#156 = FACE_OUTER_BOUND ( 'NONE', #337, .T. ) ;
#157 = CIRCLE ( 'NONE', #121, 274.8095238095239700 ) ;
#158 = EDGE_CURVE ( 'NONE', #140, #140, #238, .T. ) ;
#159 = DIRECTION ( 'NONE',  ( 0.0000000000000000000, 0.0000000000000000000, 1.000000000000000000 ) ) ;
#160 = CYLINDRICAL_SURFACE ( 'NONE', #161, 245.0000000000000000 ) ;
#161 = AXIS2_PLACEMENT_3D ( 'NONE', #90, #55, #147 ) ;
#162 = EDGE_LOOP ( 'NONE', ( #218 ) ) ;
#163 = EDGE_LOOP ( 'NONE', ( #88 ) ) ;
#164 = ORIENTED_EDGE ( 'NONE', *, *, #11, .T. ) ;
#165 = ORIENTED_EDGE ( 'NONE', *, *, #249, .F. ) ;
#166 = AXIS2_PLACEMENT_3D ( 'NONE', #330, #357, #178 ) ;
#167 = VERTEX_POINT ( 'NONE', #310 ) ;
#168 = EDGE_LOOP ( 'NONE', ( #199 ) ) ;
#169 = EDGE_CURVE ( 'NONE', #319, #319, #301, .T. ) ;
#170 = ADVANCED_FACE ( 'NONE', ( #304, #73 ), #232, .T. ) ;
#171 = DIRECTION ( 'NONE',  ( 1.000000000000000000, 0.0000000000000000000, 0.0000000000000000000 ) ) ;
#172 = CARTESIAN_POINT ( 'NONE',  ( 250.5000000000000000, 0.0000000000000000000, 2.999999999999988900 ) ) ;
#173 = CARTESIAN_POINT ( 'NONE',  ( 0.0000000000000000000, 0.0000000000000000000, 3.504537721256546100 ) ) ;
#174 = CYLINDRICAL_SURFACE ( 'NONE', #49, 250.5000000000000000 ) ;
#175 = TOROIDAL_SURFACE ( 'NONE', #24, 275.0000000000000000, 3.999999999999998200 ) ;
#176 = DIRECTION ( 'NONE',  ( 0.0000000000000000000, 0.0000000000000000000, 1.000000000000000000 ) ) ;
#177 = PRESENTATION_LAYER_ASSIGNMENT (  '', '', ( #71 ) ) ;
#178 = DIRECTION ( 'NONE',  ( 1.000000000000000000, 0.0000000000000000000, 0.0000000000000000000 ) ) ;
#179 = DIRECTION ( 'NONE',  ( 0.0000000000000000000, 0.0000000000000000000, 1.000000000000000000 ) ) ;
#180 = FACE_OUTER_BOUND ( 'NONE', #115, .T. ) ;
#181 = DIRECTION ( 'NONE',  ( 1.000000000000000000, 0.0000000000000000000, 0.0000000000000000000 ) ) ;
#182 = CIRCLE ( 'NONE', #155, 275.0000000000000000 ) ;
#183 = CIRCLE ( 'NONE', #166, 275.0000000000000000 ) ;
#184 = EDGE_LOOP ( 'NONE', ( #314 ) ) ;
#185 = CARTESIAN_POINT ( 'NONE',  ( 0.0000000000000000000, 0.0000000000000000000, 16.99999999999999300 ) ) ;
#186 = DIRECTION ( 'NONE',  ( 0.0000000000000000000, 0.0000000000000000000, 1.000000000000000000 ) ) ;
#187 = SHAPE_DEFINITION_REPRESENTATION ( #139, #305 ) ;
#188 = AXIS2_PLACEMENT_3D ( 'NONE', #123, #233, #149 ) ;
#189 = EDGE_LOOP ( 'NONE', ( #39 ) ) ;
#190 =( NAMED_UNIT ( * ) SI_UNIT ( $, .STERADIAN. ) SOLID_ANGLE_UNIT ( ) );
#191 = EDGE_LOOP ( 'NONE', ( #44 ) ) ;
#192 = AXIS2_PLACEMENT_3D ( 'NONE', #241, #69, #101 ) ;
#193 = ORIENTED_EDGE ( 'NONE', *, *, #154, .T. ) ;
#194 = PLANE ( 'NONE',  #74 ) ;
#195 = DIRECTION ( 'NONE',  ( -0.0000000000000000000, 0.0000000000000000000, -1.000000000000000000 ) ) ;
#196 = CARTESIAN_POINT ( 'NONE',  ( 0.0000000000000000000, 0.0000000000000000000, 14.99999999999999500 ) ) ;
#197 = CIRCLE ( 'NONE', #138, 250.5000000000000000 ) ;
#198 = CONICAL_SURFACE ( 'NONE', #105, 274.2500000000000600, 0.7853981633974320700 ) ;
#199 = ORIENTED_EDGE ( 'NONE', *, *, #78, .F. ) ;
#200 = PLANE ( 'NONE',  #89 ) ;
#201 = DIRECTION ( 'NONE',  ( 0.0000000000000000000, 0.0000000000000000000, 1.000000000000000000 ) ) ;
#202 = ADVANCED_FACE ( 'NONE', ( #226, #311 ), #281, .F. ) ;
#203 = PLANE ( 'NONE',  #221 ) ;
#204 = ORIENTED_EDGE ( 'NONE', *, *, #124, .F. ) ;
#205 = EDGE_CURVE ( 'NONE', #268, #268, #150, .T. ) ;
#206 = CARTESIAN_POINT ( 'NONE',  ( 0.0000000000000000000, 0.0000000000000000000, 7.499999999999984900 ) ) ;
#207 = DIRECTION ( 'NONE',  ( 0.0000000000000000000, 0.0000000000000000000, 1.000000000000000000 ) ) ;
#208 = AXIS2_PLACEMENT_3D ( 'NONE', #153, #38, #297 ) ;
#209 = COLOUR_RGB ( '',0.6470588235294118000, 0.6196078431372549200, 0.5882352941176470800 ) ;
#210 = TOROIDAL_SURFACE ( 'NONE', #377, 274.8000000000001300, 0.1999999999999616500 ) ;
#211 = FACE_OUTER_BOUND ( 'NONE', #239, .T. ) ;
#212 = ADVANCED_FACE ( 'NONE', ( #369, #211 ), #62, .T. ) ;
#213 = ORIENTED_EDGE ( 'NONE', *, *, #169, .F. ) ;
#214 = DIRECTION ( 'NONE',  ( 1.000000000000000000, 0.0000000000000000000, 0.0000000000000000000 ) ) ;
#215 = DIRECTION ( 'NONE',  ( 0.0000000000000000000, 0.0000000000000000000, 1.000000000000000000 ) ) ;
#216 = DIRECTION ( 'NONE',  ( 0.0000000000000000000, 0.0000000000000000000, 1.000000000000000000 ) ) ;
#217 =( GEOMETRIC_REPRESENTATION_CONTEXT ( 3 ) GLOBAL_UNCERTAINTY_ASSIGNED_CONTEXT ( ( #86 ) ) GLOBAL_UNIT_ASSIGNED_CONTEXT ( ( #94, #258, #320 ) ) REPRESENTATION_CONTEXT ( 'NONE', 'WORKASPACE' ) );
#218 = ORIENTED_EDGE ( 'NONE', *, *, #225, .F. ) ;
#219 = EDGE_LOOP ( 'NONE', ( #373 ) ) ;
#220 = CARTESIAN_POINT ( 'NONE',  ( 0.0000000000000000000, 0.0000000000000000000, 2.999999999999989300 ) ) ;
#221 = AXIS2_PLACEMENT_3D ( 'NONE', #135, #159, #307 ) ;
#222 = ORIENTED_EDGE ( 'NONE', *, *, #169, .T. ) ;
#223 = AXIS2_PLACEMENT_3D ( 'NONE', #30, #1, #235 ) ;
#224 = DIRECTION ( 'NONE',  ( 1.000000000000000000, 0.0000000000000000000, 0.0000000000000000000 ) ) ;
#225 = EDGE_CURVE ( 'NONE', #117, #117, #292, .T. ) ;
#226 = FACE_OUTER_BOUND ( 'NONE', #247, .T. ) ;
#227 = SURFACE_STYLE_USAGE ( .BOTH. , #144 ) ;
#228 = DIRECTION ( 'NONE',  ( 0.0000000000000000000, 0.0000000000000000000, 1.000000000000000000 ) ) ;
#229 = DIRECTION ( 'NONE',  ( -1.000000000000000000, 0.0000000000000000000, 0.0000000000000000000 ) ) ;
#230 = DIRECTION ( 'NONE',  ( -1.000000000000000000, 0.0000000000000000000, 0.0000000000000000000 ) ) ;
#231 = AXIS2_PLACEMENT_3D ( 'NONE', #185, #215, #214 ) ;
#232 = CONICAL_SURFACE ( 'NONE', #67, 275.0000000000000000, 0.7853981633973933200 ) ;
#233 = DIRECTION ( 'NONE',  ( 0.0000000000000000000, 0.0000000000000000000, 1.000000000000000000 ) ) ;
#234 = EDGE_CURVE ( 'NONE', #112, #112, #141, .T. ) ;
#235 = DIRECTION ( 'NONE',  ( 1.000000000000000000, 0.0000000000000000000, -0.0000000000000000000 ) ) ;
#236 = CARTESIAN_POINT ( 'NONE',  ( 0.0000000000000000000, 0.0000000000000000000, 14.99999999999999500 ) ) ;
#237 = VERTEX_POINT ( 'NONE', #348 ) ;
#238 = CIRCLE ( 'NONE', #208, 275.0000000000000000 ) ;
#239 = EDGE_LOOP ( 'NONE', ( #204 ) ) ;
#240 = DIRECTION ( 'NONE',  ( 0.0000000000000000000, 0.0000000000000000000, 1.000000000000000000 ) ) ;
#241 = CARTESIAN_POINT ( 'NONE',  ( 0.0000000000000000000, 0.0000000000000000000, 0.0000000000000000000 ) ) ;
#242 = AXIS2_PLACEMENT_3D ( 'NONE', #332, #207, #8 ) ;
#243 = DIRECTION ( 'NONE',  ( 0.0000000000000000000, 0.0000000000000000000, 1.000000000000000000 ) ) ;
#244 = VERTEX_POINT ( 'NONE', #109 ) ;
#245 = CARTESIAN_POINT ( 'NONE',  ( 0.0000000000000000000, 0.0000000000000000000, 0.7499999999999851200 ) ) ;
#246 = FACE_OUTER_BOUND ( 'NONE', #100, .T. ) ;
#247 = EDGE_LOOP ( 'NONE', ( #354 ) ) ;
#248 = CARTESIAN_POINT ( 'NONE',  ( 0.0000000000000000000, 0.0000000000000000000, 3.304764607319376200 ) ) ;
#249 = EDGE_CURVE ( 'NONE', #167, #167, #52, .T. ) ;
#250 = VERTEX_POINT ( 'NONE', #77 ) ;
#251 = AXIS2_PLACEMENT_3D ( 'NONE', #274, #333, #10 ) ;
#252 = CIRCLE ( 'NONE', #345, 245.0000000000000000 ) ;
#253 = EDGE_LOOP ( 'NONE', ( #165 ) ) ;
#254 = CARTESIAN_POINT ( 'NONE',  ( 0.0000000000000000000, 0.0000000000000000000, 0.0000000000000000000 ) ) ;
#255 =( NAMED_UNIT ( * ) PLANE_ANGLE_UNIT ( ) SI_UNIT ( $, .RADIAN. ) );
#256 = DIRECTION ( 'NONE',  ( 1.000000000000000000, 0.0000000000000000000, -0.0000000000000000000 ) ) ;
#257 = PLANE ( 'NONE',  #271 ) ;
#258 =( NAMED_UNIT ( * ) PLANE_ANGLE_UNIT ( ) SI_UNIT ( $, .RADIAN. ) );
#259 = ADVANCED_FACE ( 'NONE', ( #58, #37 ), #203, .T. ) ;
#260 =( LENGTH_UNIT ( ) NAMED_UNIT ( * ) SI_UNIT ( .MILLI., .METRE. ) );
#261 = CARTESIAN_POINT ( 'NONE',  ( 0.0000000000000000000, 0.0000000000000000000, 0.0000000000000000000 ) ) ;
#262 = FACE_BOUND ( 'NONE', #68, .T. ) ;
#263 = DIRECTION ( 'NONE',  ( 1.000000000000000000, 0.0000000000000000000, 0.0000000000000000000 ) ) ;
#264 = ORIENTED_EDGE ( 'NONE', *, *, #234, .F. ) ;
#265 = CARTESIAN_POINT ( 'NONE',  ( 265.0000000000000000, 0.0000000000000000000, 14.99999999999999500 ) ) ;
#266 = PLANE ( 'NONE',  #223 ) ;
#267 = DIRECTION ( 'NONE',  ( 1.000000000000000000, 0.0000000000000000000, 0.0000000000000000000 ) ) ;
#268 = VERTEX_POINT ( 'NONE', #111 ) ;
#269 = EDGE_CURVE ( 'NONE', #48, #48, #197, .T. ) ;
#270 = ORIENTED_EDGE ( 'NONE', *, *, #54, .T. ) ;
#271 = AXIS2_PLACEMENT_3D ( 'NONE', #116, #316, #230 ) ;
#272 = ORIENTED_EDGE ( 'NONE', *, *, #142, .T. ) ;
#273 = DIRECTION ( 'NONE',  ( 0.0000000000000000000, 0.0000000000000000000, 1.000000000000000000 ) ) ;
#274 = CARTESIAN_POINT ( 'NONE',  ( 0.0000000000000000000, 0.0000000000000000000, 16.99999999999999600 ) ) ;
#275 = AXIS2_PLACEMENT_3D ( 'NONE', #13, #216, #303 ) ;
#276 = CARTESIAN_POINT ( 'NONE',  ( 274.2500000000001100, 0.0000000000000000000, -1.472637775974693000E-014 ) ) ;
#277 = CARTESIAN_POINT ( 'NONE',  ( 0.0000000000000000000, 0.0000000000000000000, 11.69523539268059400 ) ) ;
#278 = CIRCLE ( 'NONE', #343, 273.0000000000000000 ) ;
#279 = EDGE_CURVE ( 'NONE', #104, #104, #182, .T. ) ;
#280 = EDGE_LOOP ( 'NONE', ( #107 ) ) ;
#281 = CYLINDRICAL_SURFACE ( 'NONE', #192, 273.0000000000000000 ) ;
#282 = ORIENTED_EDGE ( 'NONE', *, *, #158, .T. ) ;
#283 = PRODUCT_DEFINITION ( 'UNKNOWN', '', #340, #19 ) ;
#284 = AXIS2_PLACEMENT_3D ( 'NONE', #103, #179, #328 ) ;
#285 = FACE_OUTER_BOUND ( 'NONE', #326, .T. ) ;
#286 = ORIENTED_EDGE ( 'NONE', *, *, #11, .F. ) ;
#287 = DIRECTION ( 'NONE',  ( 1.000000000000000000, 0.0000000000000000000, 0.0000000000000000000 ) ) ;
#288 = STYLED_ITEM ( 'NONE', ( #372 ), #321 ) ;
#289 = DIRECTION ( 'NONE',  ( -0.0000000000000000000, 0.0000000000000000000, -1.000000000000000000 ) ) ;
#290 = DIRECTION ( 'NONE',  ( 1.000000000000000000, 0.0000000000000000000, 0.0000000000000000000 ) ) ;
#291 = FACE_OUTER_BOUND ( 'NONE', #191, .T. ) ;
#292 = CIRCLE ( 'NONE', #110, 265.0000000000000000 ) ;
#293 = EDGE_CURVE ( 'NONE', #244, #244, #98, .T. ) ;
#294 = PRODUCT_CONTEXT ( 'NONE', #96, 'mechanical' ) ;
#295 = ADVANCED_FACE ( 'NONE', ( #131, #17 ), #93, .T. ) ;
#296 = FACE_OUTER_BOUND ( 'NONE', #28, .T. ) ;
#297 = DIRECTION ( 'NONE',  ( 1.000000000000000000, 0.0000000000000000000, 0.0000000000000000000 ) ) ;
#298 = DIRECTION ( 'NONE',  ( 1.000000000000000000, 0.0000000000000000000, 0.0000000000000000000 ) ) ;
#299 = CARTESIAN_POINT ( 'NONE',  ( 0.0000000000000000000, 0.0000000000000000000, 16.99999999999999600 ) ) ;
#300 = SURFACE_STYLE_FILL_AREA ( #119 ) ;
#301 = CIRCLE ( 'NONE', #379, 274.2500000000001100 ) ;
#302 = DIRECTION ( 'NONE',  ( 0.0000000000000000000, 0.0000000000000000000, 1.000000000000000000 ) ) ;
#303 = DIRECTION ( 'NONE',  ( 1.000000000000000000, 0.0000000000000000000, 0.0000000000000000000 ) ) ;
#304 = FACE_BOUND ( 'NONE', #327, .T. ) ;
#305 = ADVANCED_BREP_SHAPE_REPRESENTATION ( 'BP1ISOK500', ( #321, #315 ), #92 ) ;
#306 = EDGE_LOOP ( 'NONE', ( #370 ) ) ;
#307 = DIRECTION ( 'NONE',  ( 1.000000000000000000, 0.0000000000000000000, -0.0000000000000000000 ) ) ;
#308 = CARTESIAN_POINT ( 'NONE',  ( 274.2500000000000600, 0.0000000000000000000, 16.99999999999999300 ) ) ;
#309 = CARTESIAN_POINT ( 'NONE',  ( 0.0000000000000000000, 0.0000000000000000000, 2.999999999999988500 ) ) ;
#310 = CARTESIAN_POINT ( 'NONE',  ( 245.0000000000000000, 0.0000000000000000000, 2.999999999999989300 ) ) ;
#311 = FACE_OUTER_BOUND ( 'NONE', #189, .T. ) ;
#312 = VERTEX_POINT ( 'NONE', #70 ) ;
#313 = FACE_OUTER_BOUND ( 'NONE', #219, .T. ) ;
#314 = ORIENTED_EDGE ( 'NONE', *, *, #142, .F. ) ;
#315 = AXIS2_PLACEMENT_3D ( 'NONE', #128, #201, #290 ) ;
#316 = DIRECTION ( 'NONE',  ( -0.0000000000000000000, 0.0000000000000000000, -1.000000000000000000 ) ) ;
#317 = CARTESIAN_POINT ( 'NONE',  ( 250.5000000000000000, 0.0000000000000000000, -1.181784161177195900E-014 ) ) ;
#318 = SURFACE_SIDE_STYLE ('',( #300 ) ) ;
#319 = VERTEX_POINT ( 'NONE', #276 ) ;
#320 =( NAMED_UNIT ( * ) SI_UNIT ( $, .STERADIAN. ) SOLID_ANGLE_UNIT ( ) );
#321 = MANIFOLD_SOLID_BREP ( 'Révolution1', #338 ) ;
#322 =( NAMED_UNIT ( * ) SI_UNIT ( $, .STERADIAN. ) SOLID_ANGLE_UNIT ( ) );
#323 = CARTESIAN_POINT ( 'NONE',  ( 0.0000000000000000000, 0.0000000000000000000, 16.99999999999999300 ) ) ;
#324 = APPLICATION_CONTEXT ( 'automotive_design' ) ;
#325 = FACE_OUTER_BOUND ( 'NONE', #253, .T. ) ;
#326 = EDGE_LOOP ( 'NONE', ( #213 ) ) ;
#327 = EDGE_LOOP ( 'NONE', ( #222 ) ) ;
#328 = DIRECTION ( 'NONE',  ( 1.000000000000000000, 0.0000000000000000000, 0.0000000000000000000 ) ) ;
#329 = ADVANCED_FACE ( 'NONE', ( #291, #246 ), #72, .T. ) ;
#330 = CARTESIAN_POINT ( 'NONE',  ( 0.0000000000000000000, 0.0000000000000000000, 3.304764607319376200 ) ) ;
#331 = VERTEX_POINT ( 'NONE', #132 ) ;
#332 = CARTESIAN_POINT ( 'NONE',  ( 0.0000000000000000000, 0.0000000000000000000, 0.0000000000000000000 ) ) ;
#333 = DIRECTION ( 'NONE',  ( 0.0000000000000000000, 0.0000000000000000000, 1.000000000000000000 ) ) ;
#334 = DIRECTION ( 'NONE',  ( 0.0000000000000000000, 0.0000000000000000000, 1.000000000000000000 ) ) ;
#335 = ADVANCED_FACE ( 'NONE', ( #156 ), #257, .T. ) ;
#336 = FACE_OUTER_BOUND ( 'NONE', #280, .T. ) ;
#337 = EDGE_LOOP ( 'NONE', ( #18 ) ) ;
#338 = CLOSED_SHELL ( 'NONE', ( #363, #335, #3, #35, #46, #202, #259, #113, #329, #339, #152, #295, #212, #170, #122, #358, #102 ) ) ;
#339 = ADVANCED_FACE ( 'NONE', ( #12, #51 ), #210, .T. ) ;
#340 = PRODUCT_DEFINITION_FORMATION_WITH_SPECIFIED_SOURCE ( 'ANY', '', #26, .NOT_KNOWN. ) ;
#341 = EDGE_LOOP ( 'NONE', ( #376 ) ) ;
#342 = EDGE_LOOP ( 'NONE', ( #270 ) ) ;
#343 = AXIS2_PLACEMENT_3D ( 'NONE', #196, #352, #171 ) ;
#344 = CARTESIAN_POINT ( 'NONE',  ( 0.0000000000000000000, 0.0000000000000000000, 0.0000000000000000000 ) ) ;
#345 = AXIS2_PLACEMENT_3D ( 'NONE', #133, #273, #130 ) ;
#346 = VERTEX_POINT ( 'NONE', #75 ) ;
#347 = ORIENTED_EDGE ( 'NONE', *, *, #269, .F. ) ;
#348 = CARTESIAN_POINT ( 'NONE',  ( 273.0000000000000000, 0.0000000000000000000, 14.99999999999999500 ) ) ;
#349 = ORIENTED_EDGE ( 'NONE', *, *, #205, .F. ) ;
#350 = AXIS2_PLACEMENT_3D ( 'NONE', #248, #186, #81 ) ;
#351 = FACE_OUTER_BOUND ( 'NONE', #342, .T. ) ;
#352 = DIRECTION ( 'NONE',  ( 0.0000000000000000000, 0.0000000000000000000, 1.000000000000000000 ) ) ;
#353 = SURFACE_STYLE_USAGE ( .BOTH. , #318 ) ;
#354 = ORIENTED_EDGE ( 'NONE', *, *, #205, .T. ) ;
#355 = DIRECTION ( 'NONE',  ( 1.000000000000000000, 0.0000000000000000000, 0.0000000000000000000 ) ) ;
#356 = PRODUCT_RELATED_PRODUCT_CATEGORY ( 'part', '', ( #26 ) ) ;
#357 = DIRECTION ( 'NONE',  ( 0.0000000000000000000, 0.0000000000000000000, 1.000000000000000000 ) ) ;
#358 = ADVANCED_FACE ( 'NONE', ( #336, #180 ), #174, .F. ) ;
#359 = FACE_OUTER_BOUND ( 'NONE', #21, .T. ) ;
#360 = CARTESIAN_POINT ( 'NONE',  ( 275.0000000000000000, 0.0000000000000000000, 0.7499999999999851200 ) ) ;
#361 = DIRECTION ( 'NONE',  ( 0.0000000000000000000, 0.0000000000000000000, 1.000000000000000000 ) ) ;
#362 = PRESENTATION_STYLE_ASSIGNMENT (( #353 ) ) ;
#363 = ADVANCED_FACE ( 'NONE', ( #20, #325 ), #160, .T. ) ;
#364 = SURFACE_STYLE_FILL_AREA ( #16 ) ;
#365 = FACE_BOUND ( 'NONE', #80, .T. ) ;
#366 = MECHANICAL_DESIGN_GEOMETRIC_PRESENTATION_REPRESENTATION (  '', ( #71 ), #217 ) ;
#367 = CARTESIAN_POINT ( 'NONE',  ( 265.0000000000000000, 0.0000000000000000000, 16.99999999999999600 ) ) ;
#368 = DIRECTION ( 'NONE',  ( 0.0000000000000000000, 0.0000000000000000000, 1.000000000000000000 ) ) ;
#369 = FACE_OUTER_BOUND ( 'NONE', #118, .T. ) ;
#370 = ORIENTED_EDGE ( 'NONE', *, *, #279, .F. ) ;
#371 = MECHANICAL_DESIGN_GEOMETRIC_PRESENTATION_REPRESENTATION (  '', ( #288 ), #7 ) ;
#372 = PRESENTATION_STYLE_ASSIGNMENT (( #227 ) ) ;
#373 = ORIENTED_EDGE ( 'NONE', *, *, #78, .T. ) ;
#374 = DIRECTION ( 'NONE',  ( 0.0000000000000000000, 0.0000000000000000000, 1.000000000000000000 ) ) ;
#375 = FACE_OUTER_BOUND ( 'NONE', #162, .T. ) ;
#376 = ORIENTED_EDGE ( 'NONE', *, *, #234, .T. ) ;
#377 = AXIS2_PLACEMENT_3D ( 'NONE', #23, #120, #224 ) ;
#378 = DIRECTION ( 'NONE',  ( 1.000000000000000000, 0.0000000000000000000, 0.0000000000000000000 ) ) ;
#379 = AXIS2_PLACEMENT_3D ( 'NONE', #40, #41, #181 ) ;
#380 = PLANE ( 'NONE',  #47 ) ;
ENDSEC;
END-ISO-10303-21;
